999
dxflib 3.17.0.0
  0
SECTION
  2
HEADER
  9
$ACADVER
  1
AC1015
  9
$HANDSEED
  5
FFFF
  9
$INSUNITS
 70
4
  9
$DIMEXE
 40
1.25
  9
$TEXTSTYLE
  7
Standard
  9
$LIMMIN
 10
0.0
 20
0.0
  0
ENDSEC
  0
SECTION
  2
TABLES
  0
TABLE
  2
VPORT
  5
8
100
AcDbSymbolTable
 70
1
  0
VPORT
  5
30
100
AcDbSymbolTableRecord
100
AcDbViewportTableRecord
  2
*Active
 70
0
 10
0.0
 20
0.0
 11
1.0
 21
1.0
 12
286.30555555555549
 22
148.5
 13
0.0
 23
0.0
 14
10.0
 24
10.0
 15
10.0
 25
10.0
 16
0.0
 26
0.0
 36
1.0
 17
0.0
 27
0.0
 37
0.0
 40
297.0
 41
1.92798353909465
 42
50.0
 43
0.0
 44
0.0
 50
0.0
 51
0.0
 71
0
 72
100
 73
1
 74
3
 75
1
 76
1
 77
0
 78
0
281
0
 65
1
110
0.0
120
0.0
130
0.0
111
1.0
121
0.0
131
0.0
112
0.0
122
1.0
132
0.0
 79
0
146
0.0
  0
ENDTAB
  0
TABLE
  2
LTYPE
  5
5
100
AcDbSymbolTable
 70
25
  0
LTYPE
  5
14
100
AcDbSymbolTableRecord
100
AcDbLinetypeTableRecord
  2
BYBLOCK
 70
0
  3

 72
65
 73
0
 40
0.0
  0
LTYPE
  5
15
100
AcDbSymbolTableRecord
100
AcDbLinetypeTableRecord
  2
BYLAYER
 70
0
  3

 72
65
 73
0
 40
0.0
  0
LTYPE
  5
16
100
AcDbSymbolTableRecord
100
AcDbLinetypeTableRecord
  2
CONTINUOUS
 70
0
  3
Solid line
 72
65
 73
0
 40
0.0
  0
LTYPE
  5
31
100
AcDbSymbolTableRecord
100
AcDbLinetypeTableRecord
  2
ACAD_ISO02W100
 70
0
  3

 72
65
 73
0
 40
0.0
  0
LTYPE
  5
32
100
AcDbSymbolTableRecord
100
AcDbLinetypeTableRecord
  2
ACAD_ISO03W100
 70
0
  3

 72
65
 73
0
 40
0.0
  0
LTYPE
  5
33
100
AcDbSymbolTableRecord
100
AcDbLinetypeTableRecord
  2
ACAD_ISO04W100
 70
0
  3

 72
65
 73
0
 40
0.0
  0
LTYPE
  5
34
100
AcDbSymbolTableRecord
100
AcDbLinetypeTableRecord
  2
ACAD_ISO05W100
 70
0
  3

 72
65
 73
0
 40
0.0
  0
LTYPE
  5
35
100
AcDbSymbolTableRecord
100
AcDbLinetypeTableRecord
  2
BORDER
 70
0
  3

 72
65
 73
0
 40
0.0
  0
LTYPE
  5
36
100
AcDbSymbolTableRecord
100
AcDbLinetypeTableRecord
  2
BORDER2
 70
0
  3

 72
65
 73
0
 40
0.0
  0
LTYPE
  5
37
100
AcDbSymbolTableRecord
100
AcDbLinetypeTableRecord
  2
BORDERX2
 70
0
  3

 72
65
 73
0
 40
0.0
  0
LTYPE
  5
38
100
AcDbSymbolTableRecord
100
AcDbLinetypeTableRecord
  2
CENTER
 70
0
  3

 72
65
 73
0
 40
0.0
  0
LTYPE
  5
39
100
AcDbSymbolTableRecord
100
AcDbLinetypeTableRecord
  2
CENTER2
 70
0
  3

 72
65
 73
0
 40
0.0
  0
LTYPE
  5
3A
100
AcDbSymbolTableRecord
100
AcDbLinetypeTableRecord
  2
CENTERX2
 70
0
  3

 72
65
 73
0
 40
0.0
  0
LTYPE
  5
3B
100
AcDbSymbolTableRecord
100
AcDbLinetypeTableRecord
  2
DASHDOT
 70
0
  3

 72
65
 73
0
 40
0.0
  0
LTYPE
  5
3C
100
AcDbSymbolTableRecord
100
AcDbLinetypeTableRecord
  2
DASHDOT2
 70
0
  3

 72
65
 73
0
 40
0.0
  0
LTYPE
  5
3D
100
AcDbSymbolTableRecord
100
AcDbLinetypeTableRecord
  2
DASHDOTX2
 70
0
  3

 72
65
 73
0
 40
0.0
  0
LTYPE
  5
3E
100
AcDbSymbolTableRecord
100
AcDbLinetypeTableRecord
  2
DASHED
 70
0
  3

 72
65
 73
0
 40
0.0
  0
LTYPE
  5
3F
100
AcDbSymbolTableRecord
100
AcDbLinetypeTableRecord
  2
DASHED2
 70
0
  3

 72
65
 73
0
 40
0.0
  0
LTYPE
  5
40
100
AcDbSymbolTableRecord
100
AcDbLinetypeTableRecord
  2
DASHEDX2
 70
0
  3

 72
65
 73
0
 40
0.0
  0
LTYPE
  5
41
100
AcDbSymbolTableRecord
100
AcDbLinetypeTableRecord
  2
DIVIDE
 70
0
  3

 72
65
 73
0
 40
0.0
  0
LTYPE
  5
42
100
AcDbSymbolTableRecord
100
AcDbLinetypeTableRecord
  2
DIVIDE2
 70
0
  3

 72
65
 73
0
 40
0.0
  0
LTYPE
  5
43
100
AcDbSymbolTableRecord
100
AcDbLinetypeTableRecord
  2
DIVIDEX2
 70
0
  3

 72
65
 73
0
 40
0.0
  0
LTYPE
  5
44
100
AcDbSymbolTableRecord
100
AcDbLinetypeTableRecord
  2
DOT
 70
0
  3

 72
65
 73
0
 40
0.0
  0
LTYPE
  5
45
100
AcDbSymbolTableRecord
100
AcDbLinetypeTableRecord
  2
DOT2
 70
0
  3

 72
65
 73
0
 40
0.0
  0
LTYPE
  5
46
100
AcDbSymbolTableRecord
100
AcDbLinetypeTableRecord
  2
DOTX2
 70
0
  3

 72
65
 73
0
 40
0.0
  0
ENDTAB
  0
TABLE
  2
LAYER
  5
2
100
AcDbSymbolTable
 70
1
  0
LAYER
  5
10
100
AcDbSymbolTableRecord
100
AcDbLayerTableRecord
  2
0
 70
0
 62
-1
420
0
  6
CONTINUOUS
370
1
390
F
  0
ENDTAB
  0
STYLE
  5
47
100
AcDbSymbolTableRecord
100
AcDbTextStyleTableRecord
  2

 70
0
 40
0.0
 41
0.0
 50
0.0
 71
0
 42
0.0
  3

  4

1001
ACAD
1000

1071
0
  0
TABLE
  2
VIEW
  5
6
100
AcDbSymbolTable
 70
0
  0
ENDTAB
  0
TABLE
  2
UCS
  5
7
100
AcDbSymbolTable
 70
0
  0
ENDTAB
  0
TABLE
  2
APPID
  5
9
100
AcDbSymbolTable
 70
1
  0
APPID
  5
12
100
AcDbSymbolTableRecord
100
AcDbRegAppTableRecord
  2
ACAD
 70
0
  0
ENDTAB
  0
TABLE
  2
DIMSTYLE
  5
A
100
AcDbSymbolTable
 70
1
100
AcDbDimStyleTable
 71
0
  0
DIMSTYLE
105
27
100
AcDbSymbolTableRecord
100
AcDbDimStyleTableRecord
  2
Standard
 41
1.0
 42
1.0
 43
3.75
 44
1.0
 70
0
 73
0
 74
0
 77
1
 78
8
140
1.0
141
2.5
143
0.03937007874016
147
1.0
171
3
172
1
271
2
272
2
274
3
278
44
283
0
284
8
340
0
  0
ENDTAB
  0
TABLE
  2
BLOCK_RECORD
  5
1
100
AcDbSymbolTable
 70
1
  0
BLOCK_RECORD
  5
1F
100
AcDbSymbolTableRecord
100
AcDbBlockTableRecord
  2
*Model_Space
340
22
  0
BLOCK_RECORD
  5
1B
100
AcDbSymbolTableRecord
100
AcDbBlockTableRecord
  2
*Paper_Space
340
1E
  0
BLOCK_RECORD
  5
23
100
AcDbSymbolTableRecord
100
AcDbBlockTableRecord
  2
*Paper_Space0
340
26
  0
BLOCK_RECORD
  5
48
100
AcDbSymbolTableRecord
100
AcDbBlockTableRecord
  2
myblock1
340
0
  0
BLOCK_RECORD
  5
49
100
AcDbSymbolTableRecord
100
AcDbBlockTableRecord
  2
myblock2
340
0
  0
ENDTAB
  0
ENDSEC
  0
SECTION
  2
BLOCKS
  0
BLOCK
  5
20
100
AcDbEntity
  8
0
100
AcDbBlockBegin
  2
*Model_Space
 70
0
 10
0.0
 20
0.0
 30
0.0
  3
*Model_Space
  1

  0
ENDBLK
  5
21
100
AcDbEntity
  8
0
100
AcDbBlockEnd
  0
BLOCK
  5
1C
100
AcDbEntity
 67
1
  8
0
100
AcDbBlockBegin
  2
*Paper_Space
 70
0
 10
0.0
 20
0.0
 30
0.0
  3
*Paper_Space
  1

  0
ENDBLK
  5
1D
100
AcDbEntity
 67
1
  8
0
100
AcDbBlockEnd
  0
BLOCK
  5
24
100
AcDbEntity
  8
0
100
AcDbBlockBegin
  2
*Paper_Space0
 70
0
 10
0.0
 20
0.0
 30
0.0
  3
*Paper_Space0
  1

  0
ENDBLK
  5
25
100
AcDbEntity
  8
0
100
AcDbBlockEnd
  0
BLOCK
  5
4A
100
AcDbEntity
  8
0
100
AcDbBlockBegin
  2
myblock1
 70
0
 10
0.0
 20
0.0
 30
0.0
  3
myblock1
  1

  0
ENDBLK
  5
4B
100
AcDbEntity
  8
0
100
AcDbBlockEnd
  0
BLOCK
  5
4C
100
AcDbEntity
  8
0
100
AcDbBlockBegin
  2
myblock2
 70
0
 10
0.0
 20
0.0
 30
0.0
  3
myblock2
  1

  0
ENDBLK
  5
4D
100
AcDbEntity
  8
0
100
AcDbBlockEnd
  0
ENDSEC
  0
SECTION
  2
ENTITIES
  0
LWPOLYLINE
  5
4E
100
AcDbEntity
  8
0
 62
-1
420
0
370
1
 48
1.0
  6
CONTINUOUS
100
AcDbPolyline
 90
34
 70
0
 10
196.85197448730469
 20
193.84861755371094
 30
0.0
 10
197.03450012207031
 20
193.8660888671875
 30
0.0
 10
197.20201110839844
 20
193.91860961914062
 30
0.0
 10
197.3544921875
 20
194.00112915039063
 30
0.0
 10
197.489501953125
 20
194.11111450195312
 30
0.0
 10
197.59945678710937
 20
194.24610900878906
 30
0.0
 10
197.68202209472656
 20
194.39863586425781
 30
0.0
 10
197.73446655273438
 20
194.56610107421875
 30
0.0
 10
197.75199890136719
 20
194.74855041503906
 30
0.0
 10
197.73451232910156
 20
194.92860412597656
 30
0.0
 10
197.68199157714844
 20
195.09858703613281
 30
0.0
 10
197.5994873046875
 20
195.25112915039062
 30
0.0
 10
197.48947143554687
 20
195.38356018066406
 30
0.0
 10
197.35447692871094
 20
195.49357604980469
 30
0.0
 10
197.20201110839844
 20
195.57608032226562
 30
0.0
 10
197.03450012207031
 20
195.62857055664062
 30
0.0
 10
196.85200500488281
 20
195.64610290527344
 30
0.0
 10
196.66950988769531
 20
195.62855529785156
 30
0.0
 10
196.50198364257812
 20
195.57609558105469
 30
0.0
 10
196.34953308105469
 20
195.49359130859375
 30
0.0
 10
196.21452331542969
 20
195.38356018066406
 30
0.0
 10
196.10452270507812
 20
195.25108337402344
 30
0.0
 10
196.02204895019531
 20
195.09861755371094
 30
0.0
 10
195.96946716308594
 20
194.92855834960937
 30
0.0
 10
195.95205688476562
 20
194.74856567382812
 30
0.0
 10
195.969482421875
 20
194.56610107421875
 30
0.0
 10
196.02200317382812
 20
194.39862060546875
 30
0.0
 10
196.1044921875
 20
194.24610900878906
 30
0.0
 10
196.21453857421875
 20
194.11112976074219
 30
0.0
 10
196.34945678710937
 20
194.00112915039063
 30
0.0
 10
196.50199890136719
 20
193.91860961914062
 30
0.0
 10
196.66952514648437
 20
193.86610412597656
 30
0.0
 10
196.85197448730469
 20
193.84861755371094
 30
0.0
 10
196.85197448730469
 20
193.84861755371094
 30
0.0
  0
LWPOLYLINE
  5
4F
100
AcDbEntity
  8
0
 62
-1
420
0
370
1
 48
1.0
  6
CONTINUOUS
100
AcDbPolyline
 90
34
 70
0
 10
203.1495361328125
 20
193.84860229492187
 30
0.0
 10
203.33201599121094
 20
193.86613464355469
 30
0.0
 10
203.49949645996094
 20
193.91864013671875
 30
0.0
 10
203.65199279785156
 20
194.00112915039063
 30
0.0
 10
203.78697204589844
 20
194.11114501953125
 30
0.0
 10
203.89704895019531
 20
194.24610900878906
 30
0.0
 10
203.97947692871094
 20
194.39862060546875
 30
0.0
 10
204.03195190429687
 20
194.56610107421875
 30
0.0
 10
204.04949951171875
 20
194.74856567382812
 30
0.0
 10
204.03196716308594
 20
194.92855834960937
 30
0.0
 10
203.97956848144531
 20
195.09860229492187
 30
0.0
 10
203.89703369140625
 20
195.25114440917969
 30
0.0
 10
203.78695678710937
 20
195.38360595703125
 30
0.0
 10
203.65202331542969
 20
195.49359130859375
 30
0.0
 10
203.49949645996094
 20
195.57614135742187
 30
0.0
 10
203.33206176757812
 20
195.62860107421875
 30
0.0
 10
203.14952087402344
 20
195.64608764648437
 30
0.0
 10
202.96701049804687
 20
195.62861633300781
 30
0.0
 10
202.79945373535156
 20
195.57611083984375
 30
0.0
 10
202.6470947265625
 20
195.49366760253906
 30
0.0
 10
202.51202392578125
 20
195.38357543945312
 30
0.0
 10
202.40206909179687
 20
195.25114440917969
 30
0.0
 10
202.31953430175781
 20
195.09861755371094
 30
0.0
 10
202.26699829101562
 20
194.92860412597656
 30
0.0
 10
202.24945068359375
 20
194.74867248535156
 30
0.0
 10
202.26702880859375
 20
194.56611633300781
 30
0.0
 10
202.31950378417969
 20
194.39860534667969
 30
0.0
 10
202.402099609375
 20
194.24607849121094
 30
0.0
 10
202.51200866699219
 20
194.11116027832031
 30
0.0
 10
202.64703369140625
 20
194.0010986328125
 30
0.0
 10
202.79949951171875
 20
193.91860961914062
 30
0.0
 10
202.96701049804687
 20
193.86610412597656
 30
0.0
 10
203.1495361328125
 20
193.84860229492187
 30
0.0
 10
203.1495361328125
 20
193.84860229492187
 30
0.0
  0
LWPOLYLINE
  5
50
100
AcDbEntity
  8
0
 62
-1
420
0
370
1
 48
1.0
  6
CONTINUOUS
100
AcDbPolyline
 90
34
 70
0
 10
196.84947204589844
 20
204.35111999511719
 30
0.0
 10
197.03199768066406
 20
204.36859130859375
 30
0.0
 10
197.19947814941406
 20
204.42105102539062
 30
0.0
 10
197.35195922851562
 20
204.50357055664062
 30
0.0
 10
197.48696899414062
 20
204.61358642578125
 30
0.0
 10
197.59693908691406
 20
204.74609375
 30
0.0
 10
197.67947387695312
 20
204.89860534667969
 30
0.0
 10
197.73194885253906
 20
205.06858825683594
 30
0.0
 10
197.74948120117187
 20
205.24858093261719
 30
0.0
 10
197.73196411132812
 20
205.43110656738281
 30
0.0
 10
197.67950439453125
 20
205.59855651855469
 30
0.0
 10
197.596923828125
 20
205.7510986328125
 30
0.0
 10
197.48698425292969
 20
205.88612365722656
 30
0.0
 10
197.35194396972656
 20
205.99610900878906
 30
0.0
 10
197.19949340820312
 20
206.07859802246094
 30
0.0
 10
197.03192138671875
 20
206.13107299804687
 30
0.0
 10
196.84944152832031
 20
206.14862060546875
 30
0.0
 10
196.66690063476562
 20
206.131103515625
 30
0.0
 10
196.49948120117187
 20
206.07859802246094
 30
0.0
 10
196.344482421875
 20
205.99604797363281
 30
0.0
 10
196.21200561523437
 20
205.88607788085937
 30
0.0
 10
196.10191345214844
 20
205.7510986328125
 30
0.0
 10
196.01698303222656
 20
205.5986328125
 30
0.0
 10
195.96452331542969
 20
205.43112182617187
 30
0.0
 10
195.94699096679687
 20
205.24859619140625
 30
0.0
 10
195.96449279785156
 20
205.06855773925781
 30
0.0
 10
196.01693725585937
 20
204.89860534667969
 30
0.0
 10
196.10195922851562
 20
204.74609375
 30
0.0
 10
196.21202087402344
 20
204.61358642578125
 30
0.0
 10
196.34445190429687
 20
204.50358581542969
 30
0.0
 10
196.49949645996094
 20
204.42109680175781
 30
0.0
 10
196.66697692871094
 20
204.36859130859375
 30
0.0
 10
196.84947204589844
 20
204.35111999511719
 30
0.0
 10
196.84947204589844
 20
204.35111999511719
 30
0.0
  0
LWPOLYLINE
  5
51
100
AcDbEntity
  8
0
 62
-1
420
0
370
1
 48
1.0
  6
CONTINUOUS
100
AcDbPolyline
 90
34
 70
0
 10
203.14700317382812
 20
204.34857177734375
 30
0.0
 10
203.32949829101562
 20
204.36613464355469
 30
0.0
 10
203.49697875976562
 20
204.41864013671875
 30
0.0
 10
203.64952087402344
 20
204.50106811523437
 30
0.0
 10
203.784423828125
 20
204.61106872558594
 30
0.0
 10
203.89450073242187
 20
204.74359130859375
 30
0.0
 10
203.97695922851563
 20
204.89604187011719
 30
0.0
 10
204.02949523925781
 20
205.0660400390625
 30
0.0
 10
204.04698181152344
 20
205.24612426757812
 30
0.0
 10
204.02951049804687
 20
205.42861938476562
 30
0.0
 10
203.97694396972656
 20
205.59609985351562
 30
0.0
 10
203.89447021484375
 20
205.74856567382812
 30
0.0
 10
203.784423828125
 20
205.88360595703125
 30
0.0
 10
203.64947509765625
 20
205.99357604980469
 30
0.0
 10
203.49699401855469
 20
206.07603454589844
 30
0.0
 10
203.3294677734375
 20
206.12857055664062
 30
0.0
 10
203.14698791503906
 20
206.14605712890625
 30
0.0
 10
202.96450805664062
 20
206.12858581542969
 30
0.0
 10
202.79696655273438
 20
206.07612609863281
 30
0.0
 10
202.64443969726562
 20
205.9935302734375
 30
0.0
 10
202.50949096679687
 20
205.88359069824219
 30
0.0
 10
202.39949035644531
 20
205.74858093261719
 30
0.0
 10
202.31694030761719
 20
205.59613037109375
 30
0.0
 10
202.26449584960937
 20
205.42863464355469
 30
0.0
 10
202.2469482421875
 20
205.24607849121094
 30
0.0
 10
202.26449584960937
 20
205.06610107421875
 30
0.0
 10
202.31695556640625
 20
204.89608764648437
 30
0.0
 10
202.3995361328125
 20
204.74359130859375
 30
0.0
 10
202.50950622558594
 20
204.61109924316406
 30
0.0
 10
202.64447021484375
 20
204.50105285644531
 30
0.0
 10
202.79692077636719
 20
204.41865539550781
 30
0.0
 10
202.96444702148437
 20
204.36605834960937
 30
0.0
 10
203.14700317382812
 20
204.34857177734375
 30
0.0
 10
203.14700317382812
 20
204.34857177734375
 30
0.0
  0
LWPOLYLINE
  5
52
100
AcDbEntity
  8
0
 62
-1
420
0
370
1
 48
1.0
  6
CONTINUOUS
100
AcDbPolyline
 90
66
 70
0
 10
199.99702453613281
 20
196.49856567382812
 30
0.0
 10
200.35447692871094
 20
196.51609802246094
 30
0.0
 10
200.7020263671875
 20
196.56857299804687
 30
0.0
 10
201.03948974609375
 20
196.6561279296875
 30
0.0
 10
201.35945129394531
 20
196.7735595703125
 30
0.0
 10
201.6669921875
 20
196.92111206054687
 30
0.0
 10
201.95449829101562
 20
197.09605407714844
 30
0.0
 10
202.2244873046875
 20
197.29862976074219
 30
0.0
 10
202.47447204589844
 20
197.52360534667969
 30
0.0
 10
202.69952392578125
 20
197.77354431152344
 30
0.0
 10
202.90200805664062
 20
198.04106140136719
 30
0.0
 10
203.0770263671875
 20
198.33108520507812
 30
0.0
 10
203.22445678710937
 20
198.63609313964844
 30
0.0
 10
203.342041015625
 20
198.95854187011719
 30
0.0
 10
203.42951965332031
 20
199.29360961914062
 30
0.0
 10
203.48197937011719
 20
199.64109802246094
 30
0.0
 10
203.49948120117187
 20
199.99861145019531
 30
0.0
 10
203.48196411132812
 20
200.35615539550781
 30
0.0
 10
203.42947387695312
 20
200.70359802246094
 30
0.0
 10
203.34205627441406
 20
201.03857421875
 30
0.0
 10
203.22444152832031
 20
201.36109924316406
 30
0.0
 10
203.07698059082031
 20
201.66606140136719
 30
0.0
 10
202.90203857421875
 20
201.95606994628906
 30
0.0
 10
202.69947814941406
 20
202.2236328125
 30
0.0
 10
202.47447204589844
 20
202.47355651855469
 30
0.0
 10
202.2244873046875
 20
202.69853210449219
 30
0.0
 10
201.95451354980469
 20
202.90104675292969
 30
0.0
 10
201.6669921875
 20
203.07601928710937
 30
0.0
 10
201.35948181152344
 20
203.22361755371094
 30
0.0
 10
201.03939819335937
 20
203.34107971191406
 30
0.0
 10
200.70195007324219
 20
203.42854309082031
 30
0.0
 10
200.35444641113281
 20
203.48106384277344
 30
0.0
 10
199.99696350097656
 20
203.49858093261719
 30
0.0
 10
199.63948059082031
 20
203.48110961914063
 30
0.0
 10
199.29193115234375
 20
203.42854309082031
 30
0.0
 10
198.95698547363281
 20
203.34111022949219
 30
0.0
 10
198.63449096679687
 20
203.22360229492187
 30
0.0
 10
198.32951354980469
 20
203.07611083984375
 30
0.0
 10
198.03950500488281
 20
202.90106201171875
 30
0.0
 10
197.77197265625
 20
202.6986083984375
 30
0.0
 10
197.52203369140625
 20
202.47361755371094
 30
0.0
 10
197.29698181152344
 20
202.22361755371094
 30
0.0
 10
197.094482421875
 20
201.95613098144531
 30
0.0
 10
196.91947937011719
 20
201.66610717773437
 30
0.0
 10
196.77201843261719
 20
201.36105346679687
 30
0.0
 10
196.65451049804687
 20
201.03861999511719
 30
0.0
 10
196.56700134277344
 20
200.70356750488281
 30
0.0
 10
196.5145263671875
 20
200.35612487792969
 30
0.0
 10
196.49697875976562
 20
199.99859619140625
 30
0.0
 10
196.51449584960937
 20
199.64109802246094
 30
0.0
 10
196.56700134277344
 20
199.29356384277344
 30
0.0
 10
196.65455627441406
 20
198.95854187011719
 30
0.0
 10
196.77201843261719
 20
198.63604736328125
 30
0.0
 10
196.91947937011719
 20
198.33108520507812
 30
0.0
 10
197.09446716308594
 20
198.0411376953125
 30
0.0
 10
197.29702758789063
 20
197.77349853515625
 30
0.0
 10
197.52203369140625
 20
197.52360534667969
 30
0.0
 10
197.77198791503906
 20
197.298583984375
 30
0.0
 10
198.03947448730469
 20
197.09605407714844
 30
0.0
 10
198.32957458496094
 20
196.92112731933594
 30
0.0
 10
198.63450622558594
 20
196.77362060546875
 30
0.0
 10
198.95703125
 20
196.65608215332031
 30
0.0
 10
199.29200744628906
 20
196.568603515625
 30
0.0
 10
199.63951110839844
 20
196.51611328125
 30
0.0
 10
199.99702453613281
 20
196.49856567382812
 30
0.0
 10
199.99702453613281
 20
196.49856567382812
 30
0.0
  0
LWPOLYLINE
  5
53
100
AcDbEntity
  8
0
 62
-1
420
0
370
1
 48
1.0
  6
CONTINUOUS
100
AcDbPolyline
 90
182
 70
0
 10
240.00064086914062
 20
199.99807739257812
 30
0.0
 10
239.97662353515625
 20
201.38638305664062
 30
0.0
 10
239.904296875
 20
202.77316284179687
 30
0.0
 10
239.78390502929687
 20
204.156494140625
 30
0.0
 10
239.61558532714844
 20
205.53485107421875
 30
0.0
 10
239.39956665039062
 20
206.90652465820312
 30
0.0
 10
239.13609313964844
 20
208.26985168457031
 30
0.0
 10
238.825439453125
 20
209.62322998046875
 30
0.0
 10
238.46791076660156
 20
210.96501159667969
 30
0.0
 10
238.06411743164062
 20
212.29362487792969
 30
0.0
 10
237.61445617675781
 20
213.60733032226562
 30
0.0
 10
237.11947631835937
 20
214.90467834472656
 30
0.0
 10
236.57966613769531
 20
216.18412780761719
 30
0.0
 10
235.99586486816406
 20
217.44400024414062
 30
0.0
 10
235.3687744140625
 20
218.68290710449219
 30
0.0
 10
234.69892883300781
 20
219.89923095703125
 30
0.0
 10
233.98731994628906
 20
221.09158325195312
 30
0.0
 10
233.23469543457031
 20
222.25857543945312
 30
0.0
 10
232.44212341308594
 20
223.39866638183594
 30
0.0
 10
231.61030578613281
 20
224.51071166992187
 30
0.0
 10
230.74049377441406
 20
225.59304809570312
 30
0.0
 10
229.83369445800781
 20
226.64457702636719
 30
0.0
 10
228.89100646972656
 20
227.6641845703125
 30
0.0
 10
227.91339111328125
 20
228.65022277832031
 30
0.0
 10
226.902099609375
 20
229.60183715820312
 30
0.0
 10
225.85850524902344
 20
230.5177001953125
 30
0.0
 10
224.78361511230469
 20
231.39688110351562
 30
0.0
 10
223.67886352539062
 20
232.23823547363281
 30
0.0
 10
222.54566955566406
 20
233.04069519042969
 30
0.0
 10
221.38531494140625
 20
233.80335998535156
 30
0.0
 10
220.19914245605469
 20
234.5252685546875
 30
0.0
 10
218.98867797851563
 20
235.20564270019531
 30
0.0
 10
217.7552490234375
 20
235.84356689453125
 30
0.0
 10
216.50051879882812
 20
236.43824768066406
 30
0.0
 10
215.225830078125
 20
236.98905944824219
 30
0.0
 10
213.932861328125
 20
237.49530029296875
 30
0.0
 10
212.62298583984375
 20
237.95632934570312
 30
0.0
 10
211.29794311523437
 20
238.37165832519531
 30
0.0
 10
209.95927429199219
 20
238.74072265625
 30
0.0
 10
208.60870361328125
 20
239.06317138671875
 30
0.0
 10
207.24765014648437
 20
239.33845520019531
 30
0.0
 10
205.87794494628906
 20
239.56639099121094
 30
0.0
 10
204.50111389160156
 20
239.74665832519531
 30
0.0
 10
203.11885070800781
 20
239.87895202636719
 30
0.0
 10
201.73283386230469
 20
239.96324157714844
 30
0.0
 10
200.34469604492187
 20
239.99937438964844
 30
0.0
 10
198.95616149902344
 20
239.98738098144531
 30
0.0
 10
197.56895446777344
 20
239.9271240234375
 30
0.0
 10
196.18455505371094
 20
239.81878662109375
 30
0.0
 10
194.80476379394531
 20
239.66244506835937
 30
0.0
 10
193.43132019042969
 20
239.45831298828125
 30
0.0
 10
192.06573486328125
 20
239.20668029785156
 30
0.0
 10
190.70965576171875
 20
238.90769958496094
 30
0.0
 10
189.36477661132812
 20
238.56195068359375
 30
0.0
 10
188.03274536132812
 20
238.16969299316406
 30
0.0
 10
186.71516418457031
 20
237.73139953613281
 30
0.0
 10
185.41363525390625
 20
237.24772644042969
 30
0.0
 10
184.12954711914063
 20
236.7191162109375
 30
0.0
 10
182.86463928222656
 20
236.14625549316406
 30
0.0
 10
181.62034606933594
 20
235.52986145019531
 30
0.0
 10
180.39826965332031
 20
234.87062072753906
 30
0.0
 10
179.19970703125
 20
234.16935729980469
 30
0.0
 10
178.02627563476562
 20
233.42695617675781
 30
0.0
 10
176.87931823730469
 20
232.64427185058594
 30
0.0
 10
175.76014709472656
 20
231.82225036621094
 30
0.0
 10
174.67027282714844
 20
230.96185302734375
 30
0.0
 10
173.61090087890625
 20
230.06416320800781
 30
0.0
 10
172.58332824707031
 20
229.13031005859375
 30
0.0
 10
171.58868408203125
 20
228.1612548828125
 30
0.0
 10
170.62838745117187
 20
227.15826416015625
 30
0.0
 10
169.70339965820312
 20
226.12255859375
 30
0.0
 10
168.81494140625
 20
225.05551147460937
 30
0.0
 10
167.964111328125
 20
223.95809936523437
 30
0.0
 10
167.15176391601562
 20
222.83192443847656
 30
0.0
 10
166.37913513183594
 20
221.67814636230469
 30
0.0
 10
165.64689636230469
 20
220.49830627441406
 30
0.0
 10
164.95610046386719
 20
219.29374694824219
 30
0.0
 10
164.30751037597656
 20
218.06599426269531
 30
0.0
 10
163.70191955566406
 20
216.81640625
 30
0.0
 10
163.14006042480469
 20
215.54655456542969
 30
0.0
 10
162.62266540527344
 20
214.25790405273437
 30
0.0
 10
162.15023803710937
 20
212.95228576660156
 30
0.0
 10
161.72348022460937
 20
211.63082885742187
 30
0.0
 10
161.34278869628906
 20
210.29544067382812
 30
0.0
 10
161.00868225097656
 20
208.94761657714844
 30
0.0
 10
160.7215576171875
 20
207.58903503417969
 30
0.0
 10
160.48178100585938
 20
206.221435546875
 30
0.0
 10
160.28961181640625
 20
204.84616088867187
 30
0.0
 10
160.14523315429688
 20
203.46510314941406
 30
0.0
 10
160.04885864257812
 20
202.07987976074219
 30
0.0
 10
160.00070190429688
 20
200.69210815429688
 30
0.0
 10
160.00074768066406
 20
199.30354309082031
 30
0.0
 10
160.04890441894531
 20
197.915771484375
 30
0.0
 10
160.14524841308594
 20
196.53057861328125
 30
0.0
 10
160.28958129882812
 20
195.14945983886719
 30
0.0
 10
160.48182678222656
 20
193.77427673339844
 30
0.0
 10
160.72158813476562
 20
192.40658569335938
 30
0.0
 10
161.00868225097656
 20
191.04801940917969
 30
0.0
 10
161.34281921386719
 20
189.7001953125
 30
0.0
 10
161.72349548339844
 20
188.36480712890625
 30
0.0
 10
162.1502685546875
 20
187.04344177246094
 30
0.0
 10
162.62269592285156
 20
185.7376708984375
 30
0.0
 10
163.14007568359375
 20
184.44911193847656
 30
0.0
 10
163.70195007324219
 20
183.17929077148437
 30
0.0
 10
164.30758666992187
 20
181.92977905273438
 30
0.0
 10
164.95620727539062
 20
180.70196533203125
 30
0.0
 10
165.64703369140625
 20
179.49748229980469
 30
0.0
 10
166.37925720214844
 20
178.317626953125
 30
0.0
 10
167.15188598632812
 20
177.16404724121094
 30
0.0
 10
167.96424865722656
 20
176.03782653808594
 30
0.0
 10
168.81503295898437
 20
174.94049072265625
 30
0.0
 10
169.70355224609375
 20
173.87339782714844
 30
0.0
 10
170.62846374511719
 20
172.83775329589844
 30
0.0
 10
171.58882141113281
 20
171.834716796875
 30
0.0
 10
172.58345031738281
 20
170.86572265625
 30
0.0
 10
173.61109924316406
 20
169.931884765625
 30
0.0
 10
174.67041015625
 20
169.03424072265625
 30
0.0
 10
175.76033020019531
 20
168.17384338378906
 30
0.0
 10
176.87953186035156
 20
167.35179138183594
 30
0.0
 10
178.02644348144531
 20
166.56907653808594
 30
0.0
 10
179.1998291015625
 20
165.82673645019531
 30
0.0
 10
180.39848327636719
 20
165.12550354003906
 30
0.0
 10
181.62052917480469
 20
164.46620178222656
 30
0.0
 10
182.86485290527344
 20
163.84989929199219
 30
0.0
 10
184.12979125976562
 20
163.27706909179687
 30
0.0
 10
185.41383361816406
 20
162.74844360351562
 30
0.0
 10
186.71540832519531
 20
162.26470947265625
 30
0.0
 10
188.03297424316406
 20
161.82650756835937
 30
0.0
 10
189.36502075195312
 20
161.43421936035156
 30
0.0
 10
190.7098388671875
 20
161.08840942382812
 30
0.0
 10
192.06590270996094
 20
160.78955078125
 30
0.0
 10
193.43153381347656
 20
160.53793334960937
 30
0.0
 10
194.80496215820312
 20
160.33377075195312
 30
0.0
 10
196.18472290039062
 20
160.17750549316406
 30
0.0
 10
197.56913757324219
 20
160.06915283203125
 30
0.0
 10
198.95637512207031
 20
160.00889587402344
 30
0.0
 10
200.34495544433594
 20
159.99684143066406
 30
0.0
 10
201.7330322265625
 20
160.03298950195312
 30
0.0
 10
203.11903381347656
 20
160.11729431152344
 30
0.0
 10
204.50125122070312
 20
160.24964904785156
 30
0.0
 10
205.87814331054687
 20
160.429931640625
 30
0.0
 10
207.24787902832031
 20
160.65786743164062
 30
0.0
 10
208.60890197753906
 20
160.93324279785156
 30
0.0
 10
209.95951843261719
 20
161.25558471679687
 30
0.0
 10
211.29818725585937
 20
161.62467956542969
 30
0.0
 10
212.62315368652344
 20
162.04000854492187
 30
0.0
 10
213.93310546875
 20
162.50106811523438
 30
0.0
 10
215.22602844238281
 20
163.00730895996094
 30
0.0
 10
216.50070190429687
 20
163.55810546875
 30
0.0
 10
217.75547790527344
 20
164.15284729003906
 30
0.0
 10
218.9888916015625
 20
164.79071044921875
 30
0.0
 10
220.19937133789062
 20
165.47105407714844
 30
0.0
 10
221.38554382324219
 20
166.19302368164062
 30
0.0
 10
222.54588317871094
 20
166.95564270019531
 30
0.0
 10
223.6790771484375
 20
167.75814819335938
 30
0.0
 10
224.7838134765625
 20
168.59945678710937
 30
0.0
 10
225.85868835449219
 20
169.47853088378906
 30
0.0
 10
226.90226745605469
 20
170.39453125
 30
0.0
 10
227.91357421875
 20
171.34611511230469
 30
0.0
 10
228.89115905761719
 20
172.332275390625
 30
0.0
 10
229.8338623046875
 20
173.35174560546875
 30
0.0
 10
230.74072265625
 20
174.40328979492187
 30
0.0
 10
231.61045837402344
 20
175.48567199707031
 30
0.0
 10
232.44221496582031
 20
176.5975341796875
 30
0.0
 10
233.23483276367188
 20
177.7376708984375
 30
0.0
 10
233.9874267578125
 20
178.90458679199219
 30
0.0
 10
234.698974609375
 20
180.096923828125
 30
0.0
 10
235.36888122558594
 20
181.31326293945312
 30
0.0
 10
235.99595642089844
 20
182.55209350585937
 30
0.0
 10
236.57975769042969
 20
183.81198120117187
 30
0.0
 10
237.11956787109375
 20
185.09140014648437
 30
0.0
 10
237.614501953125
 20
186.38873291015625
 30
0.0
 10
238.06417846679687
 20
187.70248413085937
 30
0.0
 10
238.46800231933594
 20
189.03109741210937
 30
0.0
 10
238.82548522949219
 20
190.37286376953125
 30
0.0
 10
239.13607788085937
 20
191.72627258300781
 30
0.0
 10
239.39964294433594
 20
193.08956909179687
 30
0.0
 10
239.61561584472656
 20
194.46128845214844
 30
0.0
 10
239.78392028808594
 20
195.839599609375
 30
0.0
 10
239.90432739257812
 20
197.22296142578125
 30
0.0
 10
239.97659301757812
 20
198.60969543457031
 30
0.0
 10
240.00064086914062
 20
199.99807739257812
 30
0.0
  0
LWPOLYLINE
  5
54
100
AcDbEntity
  8
0
 62
-1
420
0
370
1
 48
1.0
  6
CONTINUOUS
100
AcDbPolyline
 90
84
 70
0
 10
173.71615600585937
 20
214.46978759765625
 30
0.0
 10
173.22979736328125
 20
213.54898071289062
 30
0.0
 10
172.7755126953125
 20
212.61177062988281
 30
0.0
 10
172.35411071777344
 20
211.65939331054687
 30
0.0
 10
171.96612548828125
 20
210.69294738769531
 30
0.0
 10
171.61172485351562
 20
209.71359252929687
 30
0.0
 10
171.29168701171875
 20
208.72264099121094
 30
0.0
 10
171.006103515625
 20
207.7210693359375
 30
0.0
 10
170.75567626953125
 20
206.710205078125
 30
0.0
 10
170.54026794433594
 20
205.69131469726562
 30
0.0
 10
170.36045837402344
 20
204.66549682617187
 30
0.0
 10
170.21624755859375
 20
203.63412475585937
 30
0.0
 10
170.10795593261719
 20
202.59831237792969
 30
0.0
 10
170.03573608398437
 20
201.55935668945312
 30
0.0
 10
169.99961853027344
 20
200.51860046386719
 30
0.0
 10
169.99960327148437
 20
199.47714233398437
 30
0.0
 10
170.03573608398437
 20
198.43630981445312
 30
0.0
 10
170.10804748535156
 20
197.39739990234375
 30
0.0
 10
170.21632385253906
 20
196.36160278320312
 30
0.0
 10
170.36048889160156
 20
195.3302001953125
 30
0.0
 10
170.54029846191406
 20
194.30445861816406
 30
0.0
 10
170.75566101074219
 20
193.28544616699219
 30
0.0
 10
171.00614929199219
 20
192.27464294433594
 30
0.0
 10
171.29170227050781
 20
191.2730712890625
 30
0.0
 10
171.61178588867187
 20
190.28201293945312
 30
0.0
 10
171.88163757324219
 20
189.53642272949219
 30
0.0
 10
185.25314331054687
 20
197.25654602050781
 30
0.0
 10
185.17141723632812
 20
197.71435546875
 30
0.0
 10
185.07646179199219
 20
198.46484375
 30
0.0
 10
185.01693725585937
 20
199.22671508789062
 30
0.0
 10
184.99835205078125
 20
199.99952697753906
 30
0.0
 10
185.02005004882813
 20
200.77218627929687
 30
0.0
 10
185.07588195800781
 20
201.5338134765625
 30
0.0
 10
185.17129516601562
 20
202.28416442871094
 30
0.0
 10
185.302978515625
 20
203.02220153808594
 30
0.0
 10
185.47087097167969
 20
203.74795532226562
 30
0.0
 10
185.67373657226562
 20
204.45936584472656
 30
0.0
 10
185.90815734863281
 20
205.15538024902344
 30
0.0
 10
186.17755126953125
 20
205.83700561523437
 30
0.0
 10
186.47723388671875
 20
206.50111389160156
 30
0.0
 10
186.80853271484375
 20
207.14991760253906
 30
0.0
 10
187.16976928710937
 20
207.77566528320312
 30
0.0
 10
187.55917358398437
 20
208.38504028320312
 30
0.0
 10
187.97761535644531
 20
208.974853515625
 30
0.0
 10
188.42266845703125
 20
209.5406494140625
 30
0.0
 10
188.89544677734375
 20
210.08464050292969
 30
0.0
 10
189.38926696777344
 20
210.60487365722656
 30
0.0
 10
189.91307067871094
 20
211.10212707519531
 30
0.0
 10
190.45661926269531
 20
211.57353210449219
 30
0.0
 10
191.02198791503906
 20
212.01786804199219
 30
0.0
 10
191.61051940917969
 20
212.43727111816406
 30
0.0
 10
192.21971130371094
 20
212.82743835449219
 30
0.0
 10
192.84617614746094
 20
213.18746948242187
 30
0.0
 10
193.49319458007812
 20
213.51824951171875
 30
0.0
 10
194.15757751464844
 20
213.81886291503906
 30
0.0
 10
194.83909606933594
 20
214.08932495117187
 30
0.0
 10
195.0006103515625
 20
214.14361572265625
 30
0.0
 10
195.0006103515625
 20
229.57991027832031
 30
0.0
 10
194.04843139648437
 20
229.4044189453125
 30
0.0
 10
193.03134155273438
 20
229.18023681640625
 30
0.0
 10
192.0228271484375
 20
228.92092895507812
 30
0.0
 10
191.02363586425781
 20
228.62667846679687
 30
0.0
 10
190.03543090820312
 20
228.29798889160156
 30
0.0
 10
189.05926513671875
 20
227.93524169921875
 30
0.0
 10
188.09634399414062
 20
227.53877258300781
 30
0.0
 10
187.1475830078125
 20
227.10911560058594
 30
0.0
 10
186.21440124511719
 20
226.64680480957031
 30
0.0
 10
185.29782104492187
 20
226.15234375
 30
0.0
 10
184.39888000488281
 20
225.62651062011719
 30
0.0
 10
183.51882934570312
 20
225.06967163085937
 30
0.0
 10
182.65858459472656
 20
224.48265075683594
 30
0.0
 10
181.81930541992187
 20
223.86610412597656
 30
0.0
 10
181.00178527832031
 20
223.22084045410156
 30
0.0
 10
180.20722961425781
 20
222.54756164550781
 30
0.0
 10
179.4365234375
 20
221.84710693359375
 30
0.0
 10
178.69064331054687
 20
221.12042236328125
 30
0.0
 10
177.97032165527344
 20
220.36817932128906
 30
0.0
 10
177.27664184570312
 20
219.59144592285156
 30
0.0
 10
176.61026000976562
 20
218.791015625
 30
0.0
 10
175.97215270996094
 20
217.96807861328125
 30
0.0
 10
175.363037109375
 20
217.12339782714844
 30
0.0
 10
174.78349304199219
 20
216.25804138183594
 30
0.0
 10
174.23428344726562
 20
215.37321472167969
 30
0.0
 10
173.71615600585937
 20
214.46978759765625
 30
0.0
  0
LWPOLYLINE
  5
55
100
AcDbEntity
  8
0
 62
-1
420
0
370
1
 48
1.0
  6
CONTINUOUS
100
AcDbPolyline
 90
85
 70
0
 10
205.00057983398438
 20
214.13868713378906
 30
0.0
 10
205.15447998046875
 20
214.08621215820312
 30
0.0
 10
205.83740234375
 20
213.81898498535156
 30
0.0
 10
206.50022888183594
 20
213.51707458496094
 30
0.0
 10
207.14686584472656
 20
213.18708801269531
 30
0.0
 10
207.77598571777344
 20
212.82669067382812
 30
0.0
 10
208.38420104980469
 20
212.43516540527344
 30
0.0
 10
208.97184753417969
 20
212.01797485351562
 30
0.0
 10
209.53756713867187
 20
211.57301330566406
 30
0.0
 10
210.08279418945312
 20
211.10234069824219
 30
0.0
 10
210.60404968261719
 20
210.60504150390625
 30
0.0
 10
211.10035705566406
 20
210.084716796875
 30
0.0
 10
211.57046508789062
 20
209.53904724121094
 30
0.0
 10
212.0169677734375
 20
208.97238159179687
 30
0.0
 10
212.43421936035156
 20
208.38508605957031
 30
0.0
 10
212.82441711425781
 20
207.77587890625
 30
0.0
 10
213.18659973144531
 20
207.14820861816406
 30
0.0
 10
213.51737976074219
 20
206.50111389160156
 30
0.0
 10
213.8179931640625
 20
205.83674621582031
 30
0.0
 10
214.0863037109375
 20
205.156494140625
 30
0.0
 10
214.32101440429687
 20
204.45805358886719
 30
0.0
 10
214.52470397949219
 20
203.74581909179687
 30
0.0
 10
214.69166564941406
 20
203.02011108398437
 30
0.0
 10
214.82328796386719
 20
202.28303527832031
 30
0.0
 10
214.91819763183594
 20
201.53254699707031
 30
0.0
 10
214.97779846191406
 20
200.77066040039062
 30
0.0
 10
214.99638366699219
 20
199.99783325195312
 30
0.0
 10
214.97807312011719
 20
199.22604370117187
 30
0.0
 10
214.92012023925781
 20
198.46574401855469
 30
0.0
 10
214.82470703125
 20
197.71543884277344
 30
0.0
 10
214.74295043945312
 20
197.26033020019531
 30
0.0
 10
228.11433410644531
 20
189.54035949707031
 30
0.0
 10
228.20999145507812
 20
189.791015625
 30
0.0
 10
228.54713439941406
 20
190.7763671875
 30
0.0
 10
228.85000610351562
 20
191.77278137207031
 30
0.0
 10
229.11811828613281
 20
192.77914428710937
 30
0.0
 10
229.3511962890625
 20
193.79412841796875
 30
0.0
 10
229.54878234863281
 20
194.81666564941406
 30
0.0
 10
229.7108154296875
 20
195.84542846679687
 30
0.0
 10
229.8370361328125
 20
196.87911987304688
 30
0.0
 10
229.92726135253906
 20
197.91668701171875
 30
0.0
 10
229.98143005371094
 20
198.95669555664062
 30
0.0
 10
229.99957275390625
 20
199.99795532226562
 30
0.0
 10
229.98136901855469
 20
201.03929138183594
 30
0.0
 10
229.92723083496094
 20
202.07928466796875
 30
0.0
 10
229.83697509765625
 20
203.11680603027344
 30
0.0
 10
229.71083068847656
 20
204.15057373046875
 30
0.0
 10
229.54878234863281
 20
205.17935180664062
 30
0.0
 10
229.35113525390625
 20
206.20185852050781
 30
0.0
 10
229.11811828613281
 20
207.21690368652344
 30
0.0
 10
228.8499755859375
 20
208.22319030761719
 30
0.0
 10
228.54718017578125
 20
209.21965026855469
 30
0.0
 10
228.2099609375
 20
210.20494079589844
 30
0.0
 10
227.83866882324219
 20
211.177978515625
 30
0.0
 10
227.433837890625
 20
212.13758850097656
 30
0.0
 10
226.99591064453125
 20
213.08253479003906
 30
0.0
 10
226.52558898925781
 20
214.01162719726562
 30
0.0
 10
226.02323913574219
 20
214.92385864257812
 30
0.0
 10
225.4896240234375
 20
215.81814575195312
 30
0.0
 10
224.92514038085937
 20
216.69338989257812
 30
0.0
 10
224.33070373535156
 20
217.54847717285156
 30
0.0
 10
223.7069091796875
 20
218.38246154785156
 30
0.0
 10
223.05445861816406
 20
219.19424438476562
 30
0.0
 10
222.37440490722656
 20
219.98294067382812
 30
0.0
 10
221.66729736328125
 20
220.74757385253906
 30
0.0
 10
220.93406677246094
 20
221.48710632324219
 30
0.0
 10
220.17559814453125
 20
222.20083618164062
 30
0.0
 10
219.39300537109375
 20
222.88777160644531
 30
0.0
 10
218.58670043945312
 20
223.54716491699219
 30
0.0
 10
217.75828552246094
 20
224.17816162109375
 30
0.0
 10
216.90840148925781
 20
224.77998352050781
 30
0.0
 10
216.03805541992187
 20
225.35198974609375
 30
0.0
 10
215.14849853515625
 20
225.89344787597656
 30
0.0
 10
214.24063110351562
 20
226.40362548828125
 30
0.0
 10
213.31556701660156
 20
226.882080078125
 30
0.0
 10
212.37449645996094
 20
227.32818603515625
 30
0.0
 10
211.41841125488281
 20
227.74122619628906
 30
0.0
 10
210.44862365722656
 20
228.12086486816406
 30
0.0
 10
209.46630859375
 20
228.46672058105469
 30
0.0
 10
208.47256469726562
 20
228.77818298339844
 30
0.0
 10
207.46858215332031
 20
229.05497741699219
 30
0.0
 10
206.45558166503906
 20
229.29681396484375
 30
0.0
 10
205.4349365234375
 20
229.50334167480469
 30
0.0
 10
205.00054931640625
 20
229.57554626464844
 30
0.0
 10
205.00057983398438
 20
214.13868713378906
 30
0.0
  0
LWPOLYLINE
  5
56
100
AcDbEntity
  8
0
 62
-1
420
0
370
1
 48
1.0
  6
CONTINUOUS
100
AcDbPolyline
 90
85
 70
0
 10
177.27677917480469
 20
180.40428161621094
 30
0.0
 10
177.97042846679687
 20
179.62751770019531
 30
0.0
 10
178.69071960449219
 20
178.87535095214844
 30
0.0
 10
179.4366455078125
 20
178.14859008789063
 30
0.0
 10
180.20733642578125
 20
177.44825744628906
 30
0.0
 10
181.00192260742187
 20
176.77494812011719
 30
0.0
 10
181.81936645507812
 20
176.12968444824219
 30
0.0
 10
182.65873718261719
 20
175.51327514648437
 30
0.0
 10
183.51898193359375
 20
174.92630004882812
 30
0.0
 10
184.39903259277344
 20
174.36940002441406
 30
0.0
 10
185.29795837402344
 20
173.84353637695312
 30
0.0
 10
186.21449279785156
 20
173.34918212890625
 30
0.0
 10
187.14768981933594
 20
172.88677978515625
 30
0.0
 10
188.09648132324219
 20
172.45724487304687
 30
0.0
 10
189.05938720703125
 20
172.06082153320312
 30
0.0
 10
190.03556823730469
 20
171.69798278808594
 30
0.0
 10
191.02381896972656
 20
171.36933898925781
 30
0.0
 10
192.02290344238281
 20
171.07524108886719
 30
0.0
 10
193.03152465820312
 20
170.81587219238281
 30
0.0
 10
194.04852294921875
 20
170.59164428710937
 30
0.0
 10
195.07272338867187
 20
170.40296936035156
 30
0.0
 10
196.102783203125
 20
170.24990844726562
 30
0.0
 10
197.13764953613281
 20
170.13259887695312
 30
0.0
 10
198.17596435546875
 20
170.05137634277344
 30
0.0
 10
199.21630859375
 20
170.00619506835937
 30
0.0
 10
200.25776672363281
 20
169.99722290039062
 30
0.0
 10
201.29891967773437
 20
170.02427673339844
 30
0.0
 10
202.33828735351562
 20
170.0875244140625
 30
0.0
 10
203.37509155273438
 20
170.18670654296875
 30
0.0
 10
204.40785217285156
 20
170.32196044921875
 30
0.0
 10
205.43505859375
 20
170.49288940429688
 30
0.0
 10
206.45574951171875
 20
170.69940185546875
 30
0.0
 10
207.46875
 20
170.94123840332031
 30
0.0
 10
208.47273254394531
 20
171.21797180175781
 30
0.0
 10
209.46647644042969
 20
171.52946472167969
 30
0.0
 10
210.44883728027344
 20
171.87527465820312
 30
0.0
 10
211.41860961914063
 20
172.25497436523437
 30
0.0
 10
212.37466430664062
 20
172.66790771484375
 30
0.0
 10
213.31575012207031
 20
173.11405944824219
 30
0.0
 10
214.24075317382812
 20
173.59245300292969
 30
0.0
 10
215.14866638183594
 20
174.10263061523437
 30
0.0
 10
216.0382080078125
 20
174.64418029785156
 30
0.0
 10
216.90855407714844
 20
175.21609497070312
 30
0.0
 10
217.75845336914062
 20
175.81793212890625
 30
0.0
 10
218.58682250976563
 20
176.448974609375
 30
0.0
 10
219.39314270019531
 20
177.10818481445312
 30
0.0
 10
220.17579650878906
 20
177.795166015625
 30
0.0
 10
220.93418884277344
 20
178.50883483886719
 30
0.0
 10
221.66743469238281
 20
179.24845886230469
 30
0.0
 10
222.37443542480469
 20
180.01304626464844
 30
0.0
 10
223.05455017089844
 20
180.80174255371094
 30
0.0
 10
223.11659240722656
 20
180.87890625
 30
0.0
 10
209.74198913574219
 20
188.60066223144531
 30
0.0
 10
209.53817749023437
 20
188.42385864257812
 30
0.0
 10
208.97274780273437
 20
187.97953796386719
 30
0.0
 10
208.38426208496094
 20
187.56013488769531
 30
0.0
 10
207.77497863769531
 20
187.16995239257812
 30
0.0
 10
207.14637756347656
 20
186.81120300292969
 30
0.0
 10
206.50144958496094
 20
186.47914123535156
 30
0.0
 10
205.83499145507812
 20
186.17982482910156
 30
0.0
 10
205.15353393554687
 20
185.90933227539062
 30
0.0
 10
204.45718383789063
 20
185.67333984375
 30
0.0
 10
203.7462158203125
 20
185.47187805175781
 30
0.0
 10
203.02047729492187
 20
185.30488586425781
 30
0.0
 10
202.28343200683594
 20
185.17315673828125
 30
0.0
 10
201.5316162109375
 20
185.07608032226562
 30
0.0
 10
200.76884460449219
 20
185.01998901367187
 30
0.0
 10
199.99822998046875
 20
185.00013732910156
 30
0.0
 10
199.22775268554687
 20
185.02066040039062
 30
0.0
 10
198.46392822265625
 20
185.07769775390625
 30
0.0
 10
197.713623046875
 20
185.17306518554688
 30
0.0
 10
196.97555541992187
 20
185.3048095703125
 30
0.0
 10
196.24980163574219
 20
185.47262573242187
 30
0.0
 10
195.53840637207031
 20
185.67550659179687
 30
0.0
 10
194.84019470214844
 20
185.91120910644531
 30
0.0
 10
194.16072082519531
 20
186.17933654785156
 30
0.0
 10
193.49444580078125
 20
186.48030090332031
 30
0.0
 10
192.84786987304688
 20
186.81027221679687
 30
0.0
 10
192.21998596191406
 20
187.17280578613281
 30
0.0
 10
191.61056518554688
 20
187.562255859375
 30
0.0
 10
191.02293395996094
 20
187.97938537597656
 30
0.0
 10
190.45707702636719
 20
188.42442321777344
 30
0.0
 10
190.25680541992187
 20
188.5985107421875
 30
0.0
 10
176.88311767578125
 20
180.87709045410156
 30
0.0
 10
177.27677917480469
 20
180.40428161621094
 30
0.0
  0
LWPOLYLINE
  5
57
100
AcDbEntity
  8
0
 62
-1
420
0
370
1
 48
1.0
  6
CONTINUOUS
100
AcDbPolyline
 90
53
 70
0
 10
189.24998474121094
 20
233.35498046875
 30
0.0
 10
189.30499267578125
 20
233.17999267578125
 30
0.0
 10
189.37748718261719
 20
233.01748657226562
 30
0.0
 10
189.56248474121094
 20
232.71998596191406
 30
0.0
 10
189.7974853515625
 20
232.46748352050781
 30
0.0
 10
190.07249450683594
 20
232.26748657226562
 30
0.0
 10
190.22248840332031
 20
232.18748474121094
 30
0.0
 10
190.37998962402344
 20
232.12498474121094
 30
0.0
 10
190.54249572753906
 20
232.07498168945312
 30
0.0
 10
190.70748901367187
 20
232.04248046875
 30
0.0
 10
190.87998962402344
 20
232.02499389648437
 30
0.0
 10
191.052490234375
 20
232.02748107910156
 30
0.0
 10
191.22749328613281
 20
232.04498291015625
 30
0.0
 10
191.40248107910156
 20
232.08248901367187
 30
0.0
 10
191.57249450683594
 20
232.13748168945313
 30
0.0
 10
191.73248291015625
 20
232.20999145507812
 30
0.0
 10
192.02249145507812
 20
232.39498901367187
 30
0.0
 10
192.26748657226562
 20
232.62998962402344
 30
0.0
 10
192.46249389648437
 20
232.90748596191406
 30
0.0
 10
192.53749084472656
 20
233.05998229980469
 30
0.0
 10
192.59999084472656
 20
233.21748352050781
 30
0.0
 10
192.64498901367187
 20
233.38249206542969
 30
0.0
 10
192.677490234375
 20
233.552490234375
 30
0.0
 10
192.69248962402344
 20
233.72749328613281
 30
0.0
 10
192.68748474121094
 20
233.90248107910156
 30
0.0
 10
192.66748046875
 20
234.08248901367187
 30
0.0
 10
192.62998962402344
 20
234.25999450683594
 30
0.0
 10
192.57498168945312
 20
234.43498229980469
 30
0.0
 10
192.50248718261719
 20
234.59748840332031
 30
0.0
 10
192.31748962402344
 20
234.89498901367187
 30
0.0
 10
192.08248901367187
 20
235.14749145507812
 30
0.0
 10
191.8074951171875
 20
235.34748840332031
 30
0.0
 10
191.65998840332031
 20
235.427490234375
 30
0.0
 10
191.50248718261719
 20
235.489990234375
 30
0.0
 10
191.33998107910156
 20
235.53999328613281
 30
0.0
 10
191.1724853515625
 20
235.57249450683594
 30
0.0
 10
191.00248718261719
 20
235.58998107910156
 30
0.0
 10
190.82748413085937
 20
235.58749389648437
 30
0.0
 10
190.65248107910156
 20
235.56999206542969
 30
0.0
 10
190.47749328613281
 20
235.53248596191406
 30
0.0
 10
190.3074951171875
 20
235.47749328613281
 30
0.0
 10
190.14749145507812
 20
235.40498352050781
 30
0.0
 10
189.85748291015625
 20
235.21998596191406
 30
0.0
 10
189.61248779296875
 20
234.9849853515625
 30
0.0
 10
189.41749572753906
 20
234.70748901367187
 30
0.0
 10
189.34248352050781
 20
234.55499267578125
 30
0.0
 10
189.27998352050781
 20
234.39749145507812
 30
0.0
 10
189.2349853515625
 20
234.23248291015625
 30
0.0
 10
189.20248413085937
 20
234.06248474121094
 30
0.0
 10
189.18748474121094
 20
233.88748168945312
 30
0.0
 10
189.19248962402344
 20
233.71249389648437
 30
0.0
 10
189.21249389648437
 20
233.53248596191406
 30
0.0
 10
189.24998474121094
 20
233.35498046875
 30
0.0
  0
LWPOLYLINE
  5
58
100
AcDbEntity
  8
0
 62
-1
420
0
370
1
 48
1.0
  6
CONTINUOUS
100
AcDbPolyline
 90
65
 70
0
 10
174.01248168945312
 20
223.50999450683594
 30
0.0
 10
174.14749145507812
 20
223.38748168945312
 30
0.0
 10
174.29249572753906
 20
223.27998352050781
 30
0.0
 10
174.44248962402344
 20
223.18998718261719
 30
0.0
 10
174.60249328613281
 20
223.114990234375
 30
0.0
 10
174.76498413085937
 20
223.05747985839844
 30
0.0
 10
174.92999267578125
 20
223.01498413085937
 30
0.0
 10
175.09748840332031
 20
222.989990234375
 30
0.0
 10
175.26748657226562
 20
222.97998046875
 30
0.0
 10
175.43748474121094
 20
222.9849853515625
 30
0.0
 10
175.60499572753906
 20
223.00749206542969
 30
0.0
 10
175.76998901367187
 20
223.0474853515625
 30
0.0
 10
175.9324951171875
 20
223.10249328613281
 30
0.0
 10
176.08749389648437
 20
223.1724853515625
 30
0.0
 10
176.23748779296875
 20
223.25999450683594
 30
0.0
 10
176.37998962402344
 20
223.364990234375
 30
0.0
 10
176.51248168945313
 20
223.4849853515625
 30
0.0
 10
176.63249206542969
 20
223.61749267578125
 30
0.0
 10
176.73748779296875
 20
223.75999450683594
 30
0.0
 10
176.82498168945312
 20
223.90998840332031
 30
0.0
 10
176.89498901367187
 20
224.06498718261719
 30
0.0
 10
176.94998168945312
 20
224.22749328613281
 30
0.0
 10
176.989990234375
 20
224.39248657226562
 30
0.0
 10
177.01248168945312
 20
224.55998229980469
 30
0.0
 10
177.01748657226562
 20
224.72998046875
 30
0.0
 10
177.00749206542969
 20
224.89999389648437
 30
0.0
 10
176.98248291015625
 20
225.06748962402344
 30
0.0
 10
176.93998718261719
 20
225.23248291015625
 30
0.0
 10
176.88249206542969
 20
225.39498901367187
 30
0.0
 10
176.8074951171875
 20
225.55499267578125
 30
0.0
 10
176.71748352050781
 20
225.70498657226562
 30
0.0
 10
176.6099853515625
 20
225.84999084472656
 30
0.0
 10
176.48748779296875
 20
225.9849853515625
 30
0.0
 10
176.35249328613281
 20
226.10748291015625
 30
0.0
 10
176.20748901367187
 20
226.21498107910156
 30
0.0
 10
176.0574951171875
 20
226.30499267578125
 30
0.0
 10
175.89999389648437
 20
226.37998962402344
 30
0.0
 10
175.73748779296875
 20
226.43748474121094
 30
0.0
 10
175.56999206542969
 20
226.47998046875
 30
0.0
 10
175.40248107910156
 20
226.50498962402344
 30
0.0
 10
175.23248291015625
 20
226.51498413085937
 30
0.0
 10
175.06248474121094
 20
226.50749206542969
 30
0.0
 10
174.89498901367188
 20
226.4849853515625
 30
0.0
 10
174.72999572753906
 20
226.44749450683594
 30
0.0
 10
174.56999206542969
 20
226.39248657226562
 30
0.0
 10
174.41249084472656
 20
226.31999206542969
 30
0.0
 10
174.26248168945312
 20
226.23248291015625
 30
0.0
 10
174.1199951171875
 20
226.12998962402344
 30
0.0
 10
173.98748779296875
 20
226.00999450683594
 30
0.0
 10
173.86749267578125
 20
225.87748718261719
 30
0.0
 10
173.76498413085937
 20
225.7349853515625
 30
0.0
 10
173.677490234375
 20
225.58499145507812
 30
0.0
 10
173.60499572753906
 20
225.427490234375
 30
0.0
 10
173.54998779296875
 20
225.26748657226562
 30
0.0
 10
173.51248168945312
 20
225.10249328613281
 30
0.0
 10
173.489990234375
 20
224.93498229980469
 30
0.0
 10
173.48248291015625
 20
224.76498413085937
 30
0.0
 10
173.49249267578125
 20
224.59498596191406
 30
0.0
 10
173.51998901367188
 20
224.427490234375
 30
0.0
 10
173.56248474121094
 20
224.25999450683594
 30
0.0
 10
173.6199951171875
 20
224.09748840332031
 30
0.0
 10
173.69248962402344
 20
223.93998718261719
 30
0.0
 10
173.78498840332031
 20
223.78999328613281
 30
0.0
 10
173.88998413085937
 20
223.64498901367187
 30
0.0
 10
174.01248168945312
 20
223.50999450683594
 30
0.0
  0
LWPOLYLINE
  5
59
100
AcDbEntity
  8
0
 62
-1
420
0
370
1
 48
1.0
  6
CONTINUOUS
100
AcDbPolyline
 90
53
 70
0
 10
165.739990234375
 20
207.364990234375
 30
0.0
 10
165.91749572753906
 20
207.32748413085937
 30
0.0
 10
166.09748840332031
 20
207.3074951171875
 30
0.0
 10
166.27249145507812
 20
207.302490234375
 30
0.0
 10
166.44749450683594
 20
207.31748962402344
 30
0.0
 10
166.61749267578125
 20
207.34999084472656
 30
0.0
 10
166.78248596191406
 20
207.39498901367188
 30
0.0
 10
166.93998718261719
 20
207.45748901367187
 30
0.0
 10
167.09248352050781
 20
207.53498840332031
 30
0.0
 10
167.3699951171875
 20
207.72749328613281
 30
0.0
 10
167.60499572753906
 20
207.97248840332031
 30
0.0
 10
167.78999328613281
 20
208.26248168945312
 30
0.0
 10
167.86248779296875
 20
208.42498779296875
 30
0.0
 10
167.91749572753906
 20
208.59498596191406
 30
0.0
 10
167.95498657226562
 20
208.76998901367188
 30
0.0
 10
167.97248840332031
 20
208.94499206542969
 30
0.0
 10
167.97499084472656
 20
209.11749267578125
 30
0.0
 10
167.95748901367187
 20
209.28749084472656
 30
0.0
 10
167.92498779296875
 20
209.45498657226562
 30
0.0
 10
167.87498474121094
 20
209.61749267578125
 30
0.0
 10
167.81248474121094
 20
209.77499389648437
 30
0.0
 10
167.73248291015625
 20
209.92498779296875
 30
0.0
 10
167.53248596191406
 20
210.19998168945312
 30
0.0
 10
167.27998352050781
 20
210.4324951171875
 30
0.0
 10
166.98248291015625
 20
210.6199951171875
 30
0.0
 10
166.81999206542969
 20
210.68998718261719
 30
0.0
 10
166.64498901367187
 20
210.74748229980469
 30
0.0
 10
166.46748352050781
 20
210.78498840332031
 30
0.0
 10
166.28749084472656
 20
210.80499267578125
 30
0.0
 10
166.11248779296875
 20
210.80998229980469
 30
0.0
 10
165.93748474121094
 20
210.79498291015625
 30
0.0
 10
165.76748657226562
 20
210.76248168945313
 30
0.0
 10
165.60249328613281
 20
210.71748352050781
 30
0.0
 10
165.44499206542969
 20
210.65498352050781
 30
0.0
 10
165.29249572753906
 20
210.57998657226562
 30
0.0
 10
165.01498413085937
 20
210.38499450683594
 30
0.0
 10
164.77998352050781
 20
210.13998413085937
 30
0.0
 10
164.59498596191406
 20
209.84999084472656
 30
0.0
 10
164.52249145507812
 20
209.68748474121094
 30
0.0
 10
164.46748352050781
 20
209.51748657226562
 30
0.0
 10
164.42999267578125
 20
209.34248352050781
 30
0.0
 10
164.41249084472656
 20
209.16748046875
 30
0.0
 10
164.40998840332031
 20
208.9949951171875
 30
0.0
 10
164.427490234375
 20
208.82249450683594
 30
0.0
 10
164.45999145507812
 20
208.65748596191406
 30
0.0
 10
164.50999450683594
 20
208.4949951171875
 30
0.0
 10
164.57249450683594
 20
208.33749389648437
 30
0.0
 10
164.65248107910156
 20
208.18748474121094
 30
0.0
 10
164.85249328613281
 20
207.91249084472656
 30
0.0
 10
165.10499572753906
 20
207.677490234375
 30
0.0
 10
165.40248107910156
 20
207.49249267578125
 30
0.0
 10
165.56498718261719
 20
207.41998291015625
 30
0.0
 10
165.739990234375
 20
207.364990234375
 30
0.0
  0
LWPOLYLINE
  5
5A
100
AcDbEntity
  8
0
 62
-1
420
0
370
1
 48
1.0
  6
CONTINUOUS
100
AcDbPolyline
 90
53
 70
0
 10
166.64749145507812
 20
189.24748229980469
 30
0.0
 10
166.82249450683594
 20
189.302490234375
 30
0.0
 10
166.9849853515625
 20
189.37498474121094
 30
0.0
 10
167.28248596191406
 20
189.55998229980469
 30
0.0
 10
167.53498840332031
 20
189.79498291015625
 30
0.0
 10
167.7349853515625
 20
190.06999206542969
 30
0.0
 10
167.81498718261719
 20
190.21998596191406
 30
0.0
 10
167.87748718261719
 20
190.37748718261719
 30
0.0
 10
167.927490234375
 20
190.53999328613281
 30
0.0
 10
167.95999145507812
 20
190.70498657226562
 30
0.0
 10
167.97749328613281
 20
190.87748718261719
 30
0.0
 10
167.97499084472656
 20
191.04998779296875
 30
0.0
 10
167.95748901367187
 20
191.22499084472656
 30
0.0
 10
167.91998291015625
 20
191.39999389648437
 30
0.0
 10
167.864990234375
 20
191.56999206542969
 30
0.0
 10
167.79249572753906
 20
191.73248291015625
 30
0.0
 10
167.60748291015625
 20
192.02249145507812
 30
0.0
 10
167.3699951171875
 20
192.26748657226562
 30
0.0
 10
167.09248352050781
 20
192.46249389648437
 30
0.0
 10
166.93998718261719
 20
192.53749084472656
 30
0.0
 10
166.78248596191406
 20
192.59999084472656
 30
0.0
 10
166.61749267578125
 20
192.64498901367187
 30
0.0
 10
166.44749450683594
 20
192.677490234375
 30
0.0
 10
166.27249145507812
 20
192.69248962402344
 30
0.0
 10
166.09748840332031
 20
192.68748474121094
 30
0.0
 10
165.91749572753906
 20
192.66748046875
 30
0.0
 10
165.739990234375
 20
192.62998962402344
 30
0.0
 10
165.56498718261719
 20
192.57249450683594
 30
0.0
 10
165.40248107910156
 20
192.50248718261719
 30
0.0
 10
165.10499572753906
 20
192.31498718261719
 30
0.0
 10
164.85249328613281
 20
192.08248901367187
 30
0.0
 10
164.65498352050781
 20
191.8074951171875
 30
0.0
 10
164.57498168945313
 20
191.65748596191406
 30
0.0
 10
164.50999450683594
 20
191.49998474121094
 30
0.0
 10
164.46249389648437
 20
191.33749389648437
 30
0.0
 10
164.42999267578125
 20
191.16998291015625
 30
0.0
 10
164.41249084472656
 20
190.99998474121094
 30
0.0
 10
164.41249084472656
 20
190.82748413085937
 30
0.0
 10
164.4324951171875
 20
190.65248107910156
 30
0.0
 10
164.46998596191406
 20
190.47749328613281
 30
0.0
 10
164.52499389648437
 20
190.3074951171875
 30
0.0
 10
164.59748840332031
 20
190.14498901367187
 30
0.0
 10
164.78248596191406
 20
189.85499572753906
 30
0.0
 10
165.01748657226562
 20
189.6099853515625
 30
0.0
 10
165.29498291015625
 20
189.41749572753906
 30
0.0
 10
165.44749450683594
 20
189.33998107910156
 30
0.0
 10
165.60499572753906
 20
189.27748107910156
 30
0.0
 10
165.76998901367187
 20
189.23248291015625
 30
0.0
 10
165.93998718261719
 20
189.19998168945312
 30
0.0
 10
166.114990234375
 20
189.18498229980469
 30
0.0
 10
166.28999328613281
 20
189.18998718261719
 30
0.0
 10
166.46998596191406
 20
189.20999145507812
 30
0.0
 10
166.64749145507812
 20
189.24748229980469
 30
0.0
  0
LWPOLYLINE
  5
5B
100
AcDbEntity
  8
0
 62
-1
420
0
370
1
 48
1.0
  6
CONTINUOUS
100
AcDbPolyline
 90
65
 70
0
 10
176.489990234375
 20
174.00999450683594
 30
0.0
 10
176.61248779296875
 20
174.14498901367187
 30
0.0
 10
176.71998596191406
 20
174.28999328613281
 30
0.0
 10
176.80998229980469
 20
174.44248962402344
 30
0.0
 10
176.88499450683594
 20
174.59999084472656
 30
0.0
 10
176.94248962402344
 20
174.76248168945312
 30
0.0
 10
176.9849853515625
 20
174.927490234375
 30
0.0
 10
177.01248168945312
 20
175.09748840332031
 30
0.0
 10
177.02249145507812
 20
175.26498413085937
 30
0.0
 10
177.01498413085937
 20
175.43498229980469
 30
0.0
 10
176.99249267578125
 20
175.60249328613281
 30
0.0
 10
176.95498657226562
 20
175.76998901367187
 30
0.0
 10
176.89999389648437
 20
175.92999267578125
 30
0.0
 10
176.82748413085937
 20
176.08749389648437
 30
0.0
 10
176.739990234375
 20
176.23748779296875
 30
0.0
 10
176.63748168945313
 20
176.37998962402344
 30
0.0
 10
176.51748657226562
 20
176.51248168945313
 30
0.0
 10
176.38499450683594
 20
176.63249206542969
 30
0.0
 10
176.24249267578125
 20
176.7349853515625
 30
0.0
 10
176.09248352050781
 20
176.82249450683594
 30
0.0
 10
175.93498229980469
 20
176.89498901367187
 30
0.0
 10
175.77499389648437
 20
176.94998168945312
 30
0.0
 10
175.60748291015625
 20
176.98748779296875
 30
0.0
 10
175.43998718261719
 20
177.00999450683594
 30
0.0
 10
175.27249145507812
 20
177.01748657226562
 30
0.0
 10
175.10249328613281
 20
177.00749206542969
 30
0.0
 10
174.9324951171875
 20
176.97999572753906
 30
0.0
 10
174.76748657226562
 20
176.93748474121094
 30
0.0
 10
174.60499572753906
 20
176.87998962402344
 30
0.0
 10
174.44749450683594
 20
176.80499267578125
 30
0.0
 10
174.2974853515625
 20
176.71498107910156
 30
0.0
 10
174.15248107910156
 20
176.60748291015625
 30
0.0
 10
174.01748657226562
 20
176.4849853515625
 30
0.0
 10
173.89498901367187
 20
176.34999084472656
 30
0.0
 10
173.78749084472656
 20
176.20498657226562
 30
0.0
 10
173.69749450683594
 20
176.05499267578125
 30
0.0
 10
173.62248229980469
 20
175.89749145507812
 30
0.0
 10
173.56498718261719
 20
175.7349853515625
 30
0.0
 10
173.52249145507812
 20
175.56748962402344
 30
0.0
 10
173.4949951171875
 20
175.39999389648437
 30
0.0
 10
173.48748779296875
 20
175.22999572753906
 30
0.0
 10
173.49249267578125
 20
175.05998229980469
 30
0.0
 10
173.51498413085937
 20
174.89248657226562
 30
0.0
 10
173.552490234375
 20
174.72749328613281
 30
0.0
 10
173.60748291015625
 20
174.56748962402344
 30
0.0
 10
173.67999267578125
 20
174.40998840332031
 30
0.0
 10
173.76748657226562
 20
174.25999450683594
 30
0.0
 10
173.8699951171875
 20
174.11749267578125
 30
0.0
 10
173.989990234375
 20
173.9849853515625
 30
0.0
 10
174.12248229980469
 20
173.864990234375
 30
0.0
 10
174.26498413085937
 20
173.76248168945313
 30
0.0
 10
174.41499328613281
 20
173.67498779296875
 30
0.0
 10
174.57249450683594
 20
173.60249328613281
 30
0.0
 10
174.73248291015625
 20
173.5474853515625
 30
0.0
 10
174.89999389648437
 20
173.50999450683594
 30
0.0
 10
175.06748962402344
 20
173.48748779296875
 30
0.0
 10
175.23748779296875
 20
173.47999572753906
 30
0.0
 10
175.40498352050781
 20
173.489990234375
 30
0.0
 10
175.57498168945312
 20
173.51748657226562
 30
0.0
 10
175.739990234375
 20
173.55998229980469
 30
0.0
 10
175.90248107910156
 20
173.61749267578125
 30
0.0
 10
176.05998229980469
 20
173.68998718261719
 30
0.0
 10
176.20999145507812
 20
173.78248596191406
 30
0.0
 10
176.35499572753906
 20
173.88748168945313
 30
0.0
 10
176.489990234375
 20
174.00999450683594
 30
0.0
  0
LWPOLYLINE
  5
5C
100
AcDbEntity
  8
0
 62
-1
420
0
370
1
 48
1.0
  6
CONTINUOUS
100
AcDbPolyline
 90
53
 70
0
 10
192.63499450683594
 20
165.73748779296875
 30
0.0
 10
192.6724853515625
 20
165.91499328613281
 30
0.0
 10
192.69248962402344
 20
166.09498596191406
 30
0.0
 10
192.69749450683594
 20
166.26998901367188
 30
0.0
 10
192.6824951171875
 20
166.44499206542969
 30
0.0
 10
192.64999389648437
 20
166.614990234375
 30
0.0
 10
192.60498046875
 20
166.77998352050781
 30
0.0
 10
192.54248046875
 20
166.93748474121094
 30
0.0
 10
192.46748352050781
 20
167.08998107910156
 30
0.0
 10
192.27249145507812
 20
167.36749267578125
 30
0.0
 10
192.02748107910156
 20
167.60249328613281
 30
0.0
 10
191.73748779296875
 20
167.78749084472656
 30
0.0
 10
191.57748413085937
 20
167.8599853515625
 30
0.0
 10
191.40748596191406
 20
167.91499328613281
 30
0.0
 10
191.23248291015625
 20
167.95248413085937
 30
0.0
 10
191.0574951171875
 20
167.97248840332031
 30
0.0
 10
190.88249206542969
 20
167.97248840332031
 30
0.0
 10
190.71249389648437
 20
167.95498657226562
 30
0.0
 10
190.54498291015625
 20
167.9224853515625
 30
0.0
 10
190.38249206542969
 20
167.87498474121094
 30
0.0
 10
190.22499084472656
 20
167.80998229980469
 30
0.0
 10
190.07498168945313
 20
167.72999572753906
 30
0.0
 10
189.802490234375
 20
167.53248596191406
 30
0.0
 10
189.56748962402344
 20
167.27998352050781
 30
0.0
 10
189.38249206542969
 20
166.98248291015625
 30
0.0
 10
189.30998229980469
 20
166.81999206542969
 30
0.0
 10
189.25498962402344
 20
166.64498901367187
 30
0.0
 10
189.21748352050781
 20
166.46748352050781
 30
0.0
 10
189.19749450683594
 20
166.28749084472656
 30
0.0
 10
189.19248962402344
 20
166.11248779296875
 30
0.0
 10
189.20748901367187
 20
165.93748474121094
 30
0.0
 10
189.239990234375
 20
165.76748657226562
 30
0.0
 10
189.28498840332031
 20
165.60249328613281
 30
0.0
 10
189.34748840332031
 20
165.44499206542969
 30
0.0
 10
189.4224853515625
 20
165.29249572753906
 30
0.0
 10
189.61749267578125
 20
165.01498413085937
 30
0.0
 10
189.86248779296875
 20
164.77748107910156
 30
0.0
 10
190.15248107910156
 20
164.59248352050781
 30
0.0
 10
190.31248474121094
 20
164.51998901367187
 30
0.0
 10
190.48248291015625
 20
164.46498107910156
 30
0.0
 10
190.65748596191406
 20
164.427490234375
 30
0.0
 10
190.83248901367187
 20
164.40998840332031
 30
0.0
 10
191.00498962402344
 20
164.40748596191406
 30
0.0
 10
191.177490234375
 20
164.42498779296875
 30
0.0
 10
191.34248352050781
 20
164.45748901367187
 30
0.0
 10
191.50498962402344
 20
164.50749206542969
 30
0.0
 10
191.66249084472656
 20
164.56999206542969
 30
0.0
 10
191.81248474121094
 20
164.64999389648437
 30
0.0
 10
192.08749389648437
 20
164.84999084472656
 30
0.0
 10
192.32249450683594
 20
165.10249328613281
 30
0.0
 10
192.50749206542969
 20
165.39999389648437
 30
0.0
 10
192.57998657226562
 20
165.56248474121094
 30
0.0
 10
192.63499450683594
 20
165.73748779296875
 30
0.0
  0
LWPOLYLINE
  5
5D
100
AcDbEntity
  8
0
 62
-1
420
0
370
1
 48
1.0
  6
CONTINUOUS
100
AcDbPolyline
 90
53
 70
0
 10
210.75248718261719
 20
166.64498901367187
 30
0.0
 10
210.69749450683594
 20
166.81999206542969
 30
0.0
 10
210.62498474121094
 20
166.98248291015625
 30
0.0
 10
210.43998718261719
 20
167.27998352050781
 30
0.0
 10
210.20498657226562
 20
167.53248596191406
 30
0.0
 10
209.92999267578125
 20
167.73248291015625
 30
0.0
 10
209.77998352050781
 20
167.81248474121094
 30
0.0
 10
209.62248229980469
 20
167.87498474121094
 30
0.0
 10
209.45999145507812
 20
167.92498779296875
 30
0.0
 10
209.29498291015625
 20
167.95748901367187
 30
0.0
 10
209.12248229980469
 20
167.97499084472656
 30
0.0
 10
208.94998168945312
 20
167.97248840332031
 30
0.0
 10
208.77499389648437
 20
167.95498657226562
 30
0.0
 10
208.59999084472656
 20
167.91749572753906
 30
0.0
 10
208.42999267578125
 20
167.86248779296875
 30
0.0
 10
208.26748657226562
 20
167.78999328613281
 30
0.0
 10
207.97749328613281
 20
167.60499572753906
 30
0.0
 10
207.73248291015625
 20
167.3699951171875
 30
0.0
 10
207.53999328613281
 20
167.09248352050781
 30
0.0
 10
207.46498107910156
 20
166.93998718261719
 30
0.0
 10
207.40248107910156
 20
166.78248596191406
 30
0.0
 10
207.35498046875
 20
166.61749267578125
 30
0.0
 10
207.32498168945313
 20
166.44749450683594
 30
0.0
 10
207.30998229980469
 20
166.27249145507812
 30
0.0
 10
207.31248474121094
 20
166.09748840332031
 30
0.0
 10
207.33499145507812
 20
165.91749572753906
 30
0.0
 10
207.37248229980469
 20
165.739990234375
 30
0.0
 10
207.427490234375
 20
165.56498718261719
 30
0.0
 10
207.49998474121094
 20
165.40248107910156
 30
0.0
 10
207.68498229980469
 20
165.10499572753906
 30
0.0
 10
207.91998291015625
 20
164.85249328613281
 30
0.0
 10
208.19248962402344
 20
164.65248107910156
 30
0.0
 10
208.34248352050781
 20
164.57249450683594
 30
0.0
 10
208.49998474121094
 20
164.50999450683594
 30
0.0
 10
208.66249084472656
 20
164.45999145507812
 30
0.0
 10
208.82998657226562
 20
164.427490234375
 30
0.0
 10
208.99998474121094
 20
164.40998840332031
 30
0.0
 10
209.17498779296875
 20
164.41249084472656
 30
0.0
 10
209.34999084472656
 20
164.42999267578125
 30
0.0
 10
209.52499389648437
 20
164.46748352050781
 30
0.0
 10
209.69499206542969
 20
164.52249145507812
 30
0.0
 10
209.85498046875
 20
164.59498596191406
 30
0.0
 10
210.14498901367187
 20
164.77998352050781
 30
0.0
 10
210.38998413085937
 20
165.01498413085937
 30
0.0
 10
210.58499145507812
 20
165.29249572753906
 30
0.0
 10
210.65998840332031
 20
165.44499206542969
 30
0.0
 10
210.72248840332031
 20
165.60249328613281
 30
0.0
 10
210.76748657226562
 20
165.76748657226562
 30
0.0
 10
210.79998779296875
 20
165.93748474121094
 30
0.0
 10
210.81498718261719
 20
166.11248779296875
 30
0.0
 10
210.80998229980469
 20
166.28749084472656
 30
0.0
 10
210.78999328613281
 20
166.46748352050781
 30
0.0
 10
210.75248718261719
 20
166.64498901367187
 30
0.0
  0
LWPOLYLINE
  5
5E
100
AcDbEntity
  8
0
 62
-1
420
0
370
1
 48
1.0
  6
CONTINUOUS
100
AcDbPolyline
 90
65
 70
0
 10
225.989990234375
 20
176.489990234375
 30
0.0
 10
225.85498046875
 20
176.61248779296875
 30
0.0
 10
225.70999145507812
 20
176.71748352050781
 30
0.0
 10
225.55998229980469
 20
176.80998229980469
 30
0.0
 10
225.39999389648437
 20
176.88249206542969
 30
0.0
 10
225.23748779296875
 20
176.93998718261719
 30
0.0
 10
225.07249450683594
 20
176.98248291015625
 30
0.0
 10
224.90498352050781
 20
177.00999450683594
 30
0.0
 10
224.7349853515625
 20
177.01998901367187
 30
0.0
 10
224.56498718261719
 20
177.01248168945312
 30
0.0
 10
224.39749145507812
 20
176.989990234375
 30
0.0
 10
224.23248291015625
 20
176.95248413085937
 30
0.0
 10
224.06999206542969
 20
176.89749145507812
 30
0.0
 10
223.91499328613281
 20
176.82498168945312
 30
0.0
 10
223.76498413085937
 20
176.73748779296875
 30
0.0
 10
223.62248229980469
 20
176.63499450683594
 30
0.0
 10
223.489990234375
 20
176.51498413085937
 30
0.0
 10
223.36997985839844
 20
176.38249206542969
 30
0.0
 10
223.26498413085937
 20
176.239990234375
 30
0.0
 10
223.177490234375
 20
176.08998107910156
 30
0.0
 10
223.10748291015625
 20
175.9324951171875
 30
0.0
 10
223.052490234375
 20
175.77249145507812
 30
0.0
 10
223.01248168945312
 20
175.60748291015625
 30
0.0
 10
222.989990234375
 20
175.43998718261719
 30
0.0
 10
222.9849853515625
 20
175.26998901367187
 30
0.0
 10
222.99497985839844
 20
175.09999084472656
 30
0.0
 10
223.01998901367188
 20
174.9324951171875
 30
0.0
 10
223.06248474121094
 20
174.76498413085937
 30
0.0
 10
223.11997985839844
 20
174.60249328613281
 30
0.0
 10
223.19499206542969
 20
174.44499206542969
 30
0.0
 10
223.28498840332031
 20
174.29498291015625
 30
0.0
 10
223.39248657226562
 20
174.14999389648437
 30
0.0
 10
223.51498413085937
 20
174.01498413085937
 30
0.0
 10
223.64999389648437
 20
173.89248657226562
 30
0.0
 10
223.79498291015625
 20
173.78498840332031
 30
0.0
 10
223.94499206542969
 20
173.69499206542969
 30
0.0
 10
224.10249328613281
 20
173.6199951171875
 30
0.0
 10
224.26498413085937
 20
173.56248474121094
 30
0.0
 10
224.43247985839844
 20
173.51998901367188
 30
0.0
 10
224.59999084472656
 20
173.4949951171875
 30
0.0
 10
224.76998901367187
 20
173.4849853515625
 30
0.0
 10
224.93998718261719
 20
173.489990234375
 30
0.0
 10
225.10748291015625
 20
173.51248168945312
 30
0.0
 10
225.27249145507812
 20
173.552490234375
 30
0.0
 10
225.43247985839844
 20
173.60748291015625
 30
0.0
 10
225.58998107910156
 20
173.677490234375
 30
0.0
 10
225.739990234375
 20
173.76498413085937
 30
0.0
 10
225.88249206542969
 20
173.8699951171875
 30
0.0
 10
226.01498413085937
 20
173.989990234375
 30
0.0
 10
226.13499450683594
 20
174.12248229980469
 30
0.0
 10
226.23748779296875
 20
174.26498413085937
 30
0.0
 10
226.32498168945312
 20
174.41499328613281
 30
0.0
 10
226.39749145507812
 20
174.56999206542969
 30
0.0
 10
226.45248413085937
 20
174.73248291015625
 30
0.0
 10
226.489990234375
 20
174.89749145507812
 30
0.0
 10
226.51248168945312
 20
175.06498718261719
 30
0.0
 10
226.51998901367187
 20
175.2349853515625
 30
0.0
 10
226.50999450683594
 20
175.40498352050781
 30
0.0
 10
226.4849853515625
 20
175.57249450683594
 30
0.0
 10
226.44248962402344
 20
175.73748779296875
 30
0.0
 10
226.38499450683594
 20
175.89999389648437
 30
0.0
 10
226.30998229980469
 20
176.05998229980469
 30
0.0
 10
226.21998596191406
 20
176.20999145507812
 30
0.0
 10
226.11248779296875
 20
176.35499572753906
 30
0.0
 10
225.989990234375
 20
176.489990234375
 30
0.0
  0
LWPOLYLINE
  5
5F
100
AcDbEntity
  8
0
 62
-1
420
0
370
1
 48
1.0
  6
CONTINUOUS
100
AcDbPolyline
 90
53
 70
0
 10
234.26248168945312
 20
192.63249206542969
 30
0.0
 10
234.08499145507812
 20
192.66998291015625
 30
0.0
 10
233.90498352050781
 20
192.68998718261719
 30
0.0
 10
233.72998046875
 20
192.69499206542969
 30
0.0
 10
233.55499267578125
 20
192.67999267578125
 30
0.0
 10
233.38499450683594
 20
192.64749145507812
 30
0.0
 10
233.21998596191406
 20
192.60249328613281
 30
0.0
 10
233.06248474121094
 20
192.53999328613281
 30
0.0
 10
232.90998840332031
 20
192.46498107910156
 30
0.0
 10
232.63249206542969
 20
192.26998901367187
 30
0.0
 10
232.39749145507812
 20
192.02499389648437
 30
0.0
 10
232.21249389648437
 20
191.7349853515625
 30
0.0
 10
232.13998413085937
 20
191.57498168945313
 30
0.0
 10
232.08499145507812
 20
191.40498352050781
 30
0.0
 10
232.0474853515625
 20
191.22998046875
 30
0.0
 10
232.02998352050781
 20
191.05499267578125
 30
0.0
 10
232.02748107910156
 20
190.87998962402344
 30
0.0
 10
232.04498291015625
 20
190.70999145507812
 30
0.0
 10
232.07748413085937
 20
190.54249572753906
 30
0.0
 10
232.12748718261719
 20
190.37998962402344
 30
0.0
 10
232.18998718261719
 20
190.22248840332031
 30
0.0
 10
232.26998901367187
 20
190.07249450683594
 30
0.0
 10
232.46998596191406
 20
189.79998779296875
 30
0.0
 10
232.72248840332031
 20
189.56498718261719
 30
0.0
 10
233.01998901367188
 20
189.37998962402344
 30
0.0
 10
233.18247985839844
 20
189.3074951171875
 30
0.0
 10
233.35748291015625
 20
189.25248718261719
 30
0.0
 10
233.53498840332031
 20
189.21498107910156
 30
0.0
 10
233.71498107910156
 20
189.19499206542969
 30
0.0
 10
233.88998413085937
 20
189.18998718261719
 30
0.0
 10
234.06498718261719
 20
189.20498657226562
 30
0.0
 10
234.2349853515625
 20
189.23748779296875
 30
0.0
 10
234.39999389648437
 20
189.28248596191406
 30
0.0
 10
234.55747985839844
 20
189.34498596191406
 30
0.0
 10
234.70999145507812
 20
189.41998291015625
 30
0.0
 10
234.98748779296875
 20
189.614990234375
 30
0.0
 10
235.22248840332031
 20
189.8599853515625
 30
0.0
 10
235.40748596191406
 20
190.14999389648437
 30
0.0
 10
235.47998046875
 20
190.30998229980469
 30
0.0
 10
235.53498840332031
 20
190.47999572753906
 30
0.0
 10
235.57249450683594
 20
190.65498352050781
 30
0.0
 10
235.58998107910156
 20
190.82998657226562
 30
0.0
 10
235.59248352050781
 20
191.00248718261719
 30
0.0
 10
235.57498168945313
 20
191.17498779296875
 30
0.0
 10
235.54248046875
 20
191.33998107910156
 30
0.0
 10
235.49249267578125
 20
191.50248718261719
 30
0.0
 10
235.42999267578125
 20
191.65998840332031
 30
0.0
 10
235.34999084472656
 20
191.80998229980469
 30
0.0
 10
235.14999389648437
 20
192.08499145507812
 30
0.0
 10
234.89749145507812
 20
192.31999206542969
 30
0.0
 10
234.59999084472656
 20
192.50498962402344
 30
0.0
 10
234.43748474121094
 20
192.57748413085937
 30
0.0
 10
234.26248168945312
 20
192.63249206542969
 30
0.0
  0
LWPOLYLINE
  5
60
100
AcDbEntity
  8
0
 62
-1
420
0
370
1
 48
1.0
  6
CONTINUOUS
100
AcDbPolyline
 90
53
 70
0
 10
233.35498046875
 20
210.74998474121094
 30
0.0
 10
233.17999267578125
 20
210.69499206542969
 30
0.0
 10
233.01748657226562
 20
210.62248229980469
 30
0.0
 10
232.71998596191406
 20
210.43748474121094
 30
0.0
 10
232.46748352050781
 20
210.20248413085937
 30
0.0
 10
232.26748657226562
 20
209.927490234375
 30
0.0
 10
232.18748474121094
 20
209.77748107910156
 30
0.0
 10
232.12498474121094
 20
209.6199951171875
 30
0.0
 10
232.07498168945312
 20
209.45748901367188
 30
0.0
 10
232.04248046875
 20
209.29248046875
 30
0.0
 10
232.02499389648437
 20
209.1199951171875
 30
0.0
 10
232.02748107910156
 20
208.94749450683594
 30
0.0
 10
232.04498291015625
 20
208.77249145507812
 30
0.0
 10
232.08248901367187
 20
208.59748840332031
 30
0.0
 10
232.13748168945313
 20
208.427490234375
 30
0.0
 10
232.20999145507812
 20
208.26748657226562
 30
0.0
 10
232.39498901367187
 20
207.97749328613281
 30
0.0
 10
232.62998962402344
 20
207.73248291015625
 30
0.0
 10
232.90998840332031
 20
207.53749084472656
 30
0.0
 10
233.05998229980469
 20
207.46249389648437
 30
0.0
 10
233.21998596191406
 20
207.39999389648437
 30
0.0
 10
233.38499450683594
 20
207.35498046875
 30
0.0
 10
233.55499267578125
 20
207.32249450683594
 30
0.0
 10
233.72998046875
 20
207.3074951171875
 30
0.0
 10
233.90498352050781
 20
207.31248474121094
 30
0.0
 10
234.08499145507812
 20
207.33248901367187
 30
0.0
 10
234.26248168945312
 20
207.3699951171875
 30
0.0
 10
234.43748474121094
 20
207.42498779296875
 30
0.0
 10
234.59999084472656
 20
207.49748229980469
 30
0.0
 10
234.89749145507812
 20
207.6824951171875
 30
0.0
 10
235.14999389648437
 20
207.91748046875
 30
0.0
 10
235.34748840332031
 20
208.18998718261719
 30
0.0
 10
235.427490234375
 20
208.33998107910156
 30
0.0
 10
235.49249267578125
 20
208.49748229980469
 30
0.0
 10
235.53999328613281
 20
208.65998840332031
 30
0.0
 10
235.57249450683594
 20
208.82748413085937
 30
0.0
 10
235.58998107910156
 20
208.99748229980469
 30
0.0
 10
235.58998107910156
 20
209.1724853515625
 30
0.0
 10
235.56999206542969
 20
209.34748840332031
 30
0.0
 10
235.53248596191406
 20
209.52249145507812
 30
0.0
 10
235.47749328613281
 20
209.69248962402344
 30
0.0
 10
235.40498352050781
 20
209.85249328613281
 30
0.0
 10
235.21998596191406
 20
210.14248657226562
 30
0.0
 10
234.9849853515625
 20
210.38748168945312
 30
0.0
 10
234.70748901367187
 20
210.58248901367187
 30
0.0
 10
234.55499267578125
 20
210.65748596191406
 30
0.0
 10
234.39749145507812
 20
210.71998596191406
 30
0.0
 10
234.23248291015625
 20
210.76498413085937
 30
0.0
 10
234.06248474121094
 20
210.7974853515625
 30
0.0
 10
233.88748168945312
 20
210.81248474121094
 30
0.0
 10
233.71249389648437
 20
210.8074951171875
 30
0.0
 10
233.53248596191406
 20
210.78749084472656
 30
0.0
 10
233.35498046875
 20
210.74998474121094
 30
0.0
  0
LWPOLYLINE
  5
61
100
AcDbEntity
  8
0
 62
-1
420
0
370
1
 48
1.0
  6
CONTINUOUS
100
AcDbPolyline
 90
65
 70
0
 10
223.51248168945313
 20
225.98748779296875
 30
0.0
 10
223.38998413085937
 20
225.85249328613281
 30
0.0
 10
223.28248596191406
 20
225.70748901367187
 30
0.0
 10
223.19248962402344
 20
225.55747985839844
 30
0.0
 10
223.11749267578125
 20
225.39749145507812
 30
0.0
 10
223.05998229980469
 20
225.2349853515625
 30
0.0
 10
223.01748657226562
 20
225.06999206542969
 30
0.0
 10
222.99249267578125
 20
224.90248107910156
 30
0.0
 10
222.98248291015625
 20
224.73248291015625
 30
0.0
 10
222.98748779296875
 20
224.56248474121094
 30
0.0
 10
223.00999450683594
 20
224.39498901367188
 30
0.0
 10
223.04998779296875
 20
224.22998046875
 30
0.0
 10
223.10498046875
 20
224.06748962402344
 30
0.0
 10
223.17498779296875
 20
223.91249084472656
 30
0.0
 10
223.26248168945312
 20
223.76248168945312
 30
0.0
 10
223.36749267578125
 20
223.61997985839844
 30
0.0
 10
223.48748779296875
 20
223.48748779296875
 30
0.0
 10
223.61997985839844
 20
223.36749267578125
 30
0.0
 10
223.76248168945312
 20
223.26248168945312
 30
0.0
 10
223.91249084472656
 20
223.17498779296875
 30
0.0
 10
224.06748962402344
 20
223.10498046875
 30
0.0
 10
224.22998046875
 20
223.04998779296875
 30
0.0
 10
224.39498901367188
 20
223.00999450683594
 30
0.0
 10
224.56248474121094
 20
222.98748779296875
 30
0.0
 10
224.73248291015625
 20
222.98248291015625
 30
0.0
 10
224.90248107910156
 20
222.99249267578125
 30
0.0
 10
225.06999206542969
 20
223.01748657226562
 30
0.0
 10
225.2349853515625
 20
223.05998229980469
 30
0.0
 10
225.39749145507812
 20
223.11749267578125
 30
0.0
 10
225.55747985839844
 20
223.19248962402344
 30
0.0
 10
225.70748901367187
 20
223.28248596191406
 30
0.0
 10
225.85249328613281
 20
223.38998413085937
 30
0.0
 10
225.98748779296875
 20
223.51248168945313
 30
0.0
 10
226.1099853515625
 20
223.64749145507812
 30
0.0
 10
226.21498107910156
 20
223.79248046875
 30
0.0
 10
226.30747985839844
 20
223.94248962402344
 30
0.0
 10
226.37998962402344
 20
224.09999084472656
 30
0.0
 10
226.43748474121094
 20
224.26248168945312
 30
0.0
 10
226.47998046875
 20
224.42999267578125
 30
0.0
 10
226.50749206542969
 20
224.59748840332031
 30
0.0
 10
226.51748657226562
 20
224.76748657226562
 30
0.0
 10
226.50999450683594
 20
224.93748474121094
 30
0.0
 10
226.48748779296875
 20
225.10498046875
 30
0.0
 10
226.44998168945312
 20
225.26998901367187
 30
0.0
 10
226.39498901367187
 20
225.42999267578125
 30
0.0
 10
226.32249450683594
 20
225.58749389648437
 30
0.0
 10
226.2349853515625
 20
225.73748779296875
 30
0.0
 10
226.13249206542969
 20
225.87998962402344
 30
0.0
 10
226.01248168945312
 20
226.01248168945312
 30
0.0
 10
225.87998962402344
 20
226.13249206542969
 30
0.0
 10
225.73748779296875
 20
226.2349853515625
 30
0.0
 10
225.58749389648437
 20
226.32249450683594
 30
0.0
 10
225.42999267578125
 20
226.39498901367187
 30
0.0
 10
225.26998901367187
 20
226.44998168945312
 30
0.0
 10
225.10498046875
 20
226.48748779296875
 30
0.0
 10
224.93748474121094
 20
226.50999450683594
 30
0.0
 10
224.76748657226562
 20
226.51748657226562
 30
0.0
 10
224.59748840332031
 20
226.50749206542969
 30
0.0
 10
224.42999267578125
 20
226.48248291015625
 30
0.0
 10
224.26248168945312
 20
226.43998718261719
 30
0.0
 10
224.09999084472656
 20
226.38249206542969
 30
0.0
 10
223.94248962402344
 20
226.30747985839844
 30
0.0
 10
223.79248046875
 20
226.21748352050781
 30
0.0
 10
223.64749145507812
 20
226.1099853515625
 30
0.0
 10
223.51248168945313
 20
225.98748779296875
 30
0.0
  0
LWPOLYLINE
  5
62
100
AcDbEntity
  8
0
 62
-1
420
0
370
1
 48
1.0
  6
CONTINUOUS
100
AcDbPolyline
 90
53
 70
0
 10
207.36749267578125
 20
234.25999450683594
 30
0.0
 10
207.32998657226562
 20
234.08248901367187
 30
0.0
 10
207.30998229980469
 20
233.90248107910156
 30
0.0
 10
207.30499267578125
 20
233.72749328613281
 30
0.0
 10
207.31999206542969
 20
233.552490234375
 30
0.0
 10
207.35249328613281
 20
233.38249206542969
 30
0.0
 10
207.39749145507812
 20
233.21748352050781
 30
0.0
 10
207.45999145507812
 20
233.05998229980469
 30
0.0
 10
207.53498840332031
 20
232.90748596191406
 30
0.0
 10
207.72998046875
 20
232.62998962402344
 30
0.0
 10
207.97499084472656
 20
232.39498901367187
 30
0.0
 10
208.26498413085937
 20
232.20999145507812
 30
0.0
 10
208.42498779296875
 20
232.13748168945313
 30
0.0
 10
208.59498596191406
 20
232.08248901367187
 30
0.0
 10
208.76998901367188
 20
232.04498291015625
 30
0.0
 10
208.94499206542969
 20
232.02748107910156
 30
0.0
 10
209.1199951171875
 20
232.02499389648437
 30
0.0
 10
209.28999328613281
 20
232.04248046875
 30
0.0
 10
209.45748901367188
 20
232.07498168945312
 30
0.0
 10
209.6199951171875
 20
232.12498474121094
 30
0.0
 10
209.77748107910156
 20
232.18748474121094
 30
0.0
 10
209.92498779296875
 20
232.26748657226562
 30
0.0
 10
210.19998168945312
 20
232.46748352050781
 30
0.0
 10
210.43498229980469
 20
232.71998596191406
 30
0.0
 10
210.6199951171875
 20
233.01748657226562
 30
0.0
 10
210.69248962402344
 20
233.17999267578125
 30
0.0
 10
210.74748229980469
 20
233.35498046875
 30
0.0
 10
210.78749084472656
 20
233.53248596191406
 30
0.0
 10
210.8074951171875
 20
233.71249389648437
 30
0.0
 10
210.80998229980469
 20
233.88748168945312
 30
0.0
 10
210.79498291015625
 20
234.06248474121094
 30
0.0
 10
210.76498413085937
 20
234.23248291015625
 30
0.0
 10
210.71998596191406
 20
234.39749145507812
 30
0.0
 10
210.65748596191406
 20
234.55499267578125
 30
0.0
 10
210.57998657226562
 20
234.70748901367187
 30
0.0
 10
210.38748168945312
 20
234.9849853515625
 30
0.0
 10
210.14248657226562
 20
235.21998596191406
 30
0.0
 10
209.85249328613281
 20
235.40498352050781
 30
0.0
 10
209.68998718261719
 20
235.47749328613281
 30
0.0
 10
209.51998901367187
 20
235.53248596191406
 30
0.0
 10
209.34498596191406
 20
235.56999206542969
 30
0.0
 10
209.16998291015625
 20
235.58749389648437
 30
0.0
 10
208.99748229980469
 20
235.58998107910156
 30
0.0
 10
208.82498168945312
 20
235.57249450683594
 30
0.0
 10
208.65998840332031
 20
235.53999328613281
 30
0.0
 10
208.49748229980469
 20
235.489990234375
 30
0.0
 10
208.33998107910156
 20
235.427490234375
 30
0.0
 10
208.18998718261719
 20
235.34748840332031
 30
0.0
 10
207.91499328613281
 20
235.14749145507812
 30
0.0
 10
207.67999267578125
 20
234.89498901367187
 30
0.0
 10
207.4949951171875
 20
234.59748840332031
 30
0.0
 10
207.4224853515625
 20
234.43498229980469
 30
0.0
 10
207.36749267578125
 20
234.25999450683594
 30
0.0
  0
ENDSEC
  0
SECTION
  2
OBJECTS
  0
DICTIONARY
  5
C
100
AcDbDictionary
280
0
281
1
  3
ACAD_GROUP
350
D
  3
ACAD_LAYOUT
350
1A
  3
ACAD_MLINESTYLE
350
17
  3
ACAD_PLOTSETTINGS
350
19
  3
ACAD_PLOTSTYLENAME
350
E
  3
AcDbVariableDictionary
350
63
  0
DICTIONARY
  5
D
100
AcDbDictionary
280
0
281
1
  0
ACDBDICTIONARYWDFLT
  5
E
100
AcDbDictionary
281
1
  3
Normal
350
F
100
AcDbDictionaryWithDefault
340
F
  0
ACDBPLACEHOLDER
  5
F
  0
DICTIONARY
  5
17
100
AcDbDictionary
280
0
281
1
  3
Standard
350
18
  0
MLINESTYLE
  5
18
100
AcDbMlineStyle
  2
STANDARD
 70
0
  3

 62
256
 51
90.0
 52
90.0
 71
2
 49
0.5
 62
256
  6
BYLAYER
 49
-0.5
 62
256
  6
BYLAYER
  0
DICTIONARY
  5
19
100
AcDbDictionary
280
0
281
1
  0
DICTIONARY
  5
1A
100
AcDbDictionary
281
1
  3
Layout1
350
1E
  3
Layout2
350
26
  3
Model
350
22
  0
LAYOUT
  5
1E
100
AcDbPlotSettings
  1

  2
none_device
  4

  6

 40
0.0
 41
0.0
 42
0.0
 43
0.0
 44
0.0
 45
0.0
 46
0.0
 47
0.0
 48
0.0
 49
0.0
140
0.0
141
0.0
142
1.0
143
1.0
 70
688
 72
0
 73
0
 74
5
  7

 75
16
147
1.0
148
0.0
149
0.0
100
AcDbLayout
  1
Layout1
 70
1
 71
1
 10
0.0
 20
0.0
 11
420.0
 21
297.0
 12
0.0
 22
0.0
 32
0.0
 14
100000000000000000000.0
 24
100000000000000000000.0
 34
100000000000000000000.0
 15
-100000000000000000000.0
 25
-100000000000000000000.0
 35
-100000000000000000000.0
146
0.0
 13
0.0
 23
0.0
 33
0.0
 16
1.0
 26
0.0
 36
0.0
 17
0.0
 27
1.0
 37
0.0
 76
0
330
1B
  0
LAYOUT
  5
22
100
AcDbPlotSettings
  1

  2
none_device
  4

  6

 40
0.0
 41
0.0
 42
0.0
 43
0.0
 44
0.0
 45
0.0
 46
0.0
 47
0.0
 48
0.0
 49
0.0
140
0.0
141
0.0
142
1.0
143
1.0
 70
1712
 72
0
 73
0
 74
0
  7

 75
0
147
1.0
148
0.0
149
0.0
100
AcDbLayout
  1
Model
 70
1
 71
0
 10
0.0
 20
0.0
 11
12.0
 21
9.0
 12
0.0
 22
0.0
 32
0.0
 14
0.0
 24
0.0
 34
0.0
 15
0.0
 25
0.0
 35
0.0
146
0.0
 13
0.0
 23
0.0
 33
0.0
 16
1.0
 26
0.0
 36
0.0
 17
0.0
 27
1.0
 37
0.0
 76
0
330
1F
  0
LAYOUT
  5
26
100
AcDbPlotSettings
  1

  2
none_device
  4

  6

 40
0.0
 41
0.0
 42
0.0
 43
0.0
 44
0.0
 45
0.0
 46
0.0
 47
0.0
 48
0.0
 49
0.0
140
0.0
141
0.0
142
1.0
143
1.0
 70
688
 72
0
 73
0
 74
5
  7

 75
16
147
1.0
148
0.0
149
0.0
100
AcDbLayout
  1
Layout2
 70
1
 71
2
 10
0.0
 20
0.0
 11
12.0
 21
9.0
 12
0.0
 22
0.0
 32
0.0
 14
0.0
 24
0.0
 34
0.0
 15
0.0
 25
0.0
 35
0.0
146
0.0
 13
0.0
 23
0.0
 33
0.0
 16
1.0
 26
0.0
 36
0.0
 17
0.0
 27
1.0
 37
0.0
 76
0
330
23
  0
DICTIONARY
  5
63
100
AcDbDictionary
281
1
  3
DIMASSOC
350
65
  3
HIDETEXT
350
64
  0
DICTIONARYVAR
  5
64
100
DictionaryVariables
280
0
  1
2
  0
DICTIONARYVAR
  5
65
100
DictionaryVariables
280
0
  1
1
  0
ENDSEC
  0
EOF
