999
dxflib 3.17.0.0
  0
SECTION
  2
HEADER
  9
$ACADVER
  1
AC1015
  9
$HANDSEED
  5
FFFF
  9
$INSUNITS
 70
4
  9
$DIMEXE
 40
1.25
  9
$TEXTSTYLE
  7
Standard
  9
$LIMMIN
 10
0.0
 20
0.0
  0
ENDSEC
  0
SECTION
  2
TABLES
  0
TABLE
  2
VPORT
  5
8
100
AcDbSymbolTable
 70
1
  0
VPORT
  5
30
100
AcDbSymbolTableRecord
100
AcDbViewportTableRecord
  2
*Active
 70
0
 10
0.0
 20
0.0
 11
1.0
 21
1.0
 12
286.30555555555549
 22
148.5
 13
0.0
 23
0.0
 14
10.0
 24
10.0
 15
10.0
 25
10.0
 16
0.0
 26
0.0
 36
1.0
 17
0.0
 27
0.0
 37
0.0
 40
297.0
 41
1.92798353909465
 42
50.0
 43
0.0
 44
0.0
 50
0.0
 51
0.0
 71
0
 72
100
 73
1
 74
3
 75
1
 76
1
 77
0
 78
0
281
0
 65
1
110
0.0
120
0.0
130
0.0
111
1.0
121
0.0
131
0.0
112
0.0
122
1.0
132
0.0
 79
0
146
0.0
  0
ENDTAB
  0
TABLE
  2
LTYPE
  5
5
100
AcDbSymbolTable
 70
25
  0
LTYPE
  5
14
100
AcDbSymbolTableRecord
100
AcDbLinetypeTableRecord
  2
BYBLOCK
 70
0
  3

 72
65
 73
0
 40
0.0
  0
LTYPE
  5
15
100
AcDbSymbolTableRecord
100
AcDbLinetypeTableRecord
  2
BYLAYER
 70
0
  3

 72
65
 73
0
 40
0.0
  0
LTYPE
  5
16
100
AcDbSymbolTableRecord
100
AcDbLinetypeTableRecord
  2
CONTINUOUS
 70
0
  3
Solid line
 72
65
 73
0
 40
0.0
  0
LTYPE
  5
31
100
AcDbSymbolTableRecord
100
AcDbLinetypeTableRecord
  2
ACAD_ISO02W100
 70
0
  3

 72
65
 73
0
 40
0.0
  0
LTYPE
  5
32
100
AcDbSymbolTableRecord
100
AcDbLinetypeTableRecord
  2
ACAD_ISO03W100
 70
0
  3

 72
65
 73
0
 40
0.0
  0
LTYPE
  5
33
100
AcDbSymbolTableRecord
100
AcDbLinetypeTableRecord
  2
ACAD_ISO04W100
 70
0
  3

 72
65
 73
0
 40
0.0
  0
LTYPE
  5
34
100
AcDbSymbolTableRecord
100
AcDbLinetypeTableRecord
  2
ACAD_ISO05W100
 70
0
  3

 72
65
 73
0
 40
0.0
  0
LTYPE
  5
35
100
AcDbSymbolTableRecord
100
AcDbLinetypeTableRecord
  2
BORDER
 70
0
  3

 72
65
 73
0
 40
0.0
  0
LTYPE
  5
36
100
AcDbSymbolTableRecord
100
AcDbLinetypeTableRecord
  2
BORDER2
 70
0
  3

 72
65
 73
0
 40
0.0
  0
LTYPE
  5
37
100
AcDbSymbolTableRecord
100
AcDbLinetypeTableRecord
  2
BORDERX2
 70
0
  3

 72
65
 73
0
 40
0.0
  0
LTYPE
  5
38
100
AcDbSymbolTableRecord
100
AcDbLinetypeTableRecord
  2
CENTER
 70
0
  3

 72
65
 73
0
 40
0.0
  0
LTYPE
  5
39
100
AcDbSymbolTableRecord
100
AcDbLinetypeTableRecord
  2
CENTER2
 70
0
  3

 72
65
 73
0
 40
0.0
  0
LTYPE
  5
3A
100
AcDbSymbolTableRecord
100
AcDbLinetypeTableRecord
  2
CENTERX2
 70
0
  3

 72
65
 73
0
 40
0.0
  0
LTYPE
  5
3B
100
AcDbSymbolTableRecord
100
AcDbLinetypeTableRecord
  2
DASHDOT
 70
0
  3

 72
65
 73
0
 40
0.0
  0
LTYPE
  5
3C
100
AcDbSymbolTableRecord
100
AcDbLinetypeTableRecord
  2
DASHDOT2
 70
0
  3

 72
65
 73
0
 40
0.0
  0
LTYPE
  5
3D
100
AcDbSymbolTableRecord
100
AcDbLinetypeTableRecord
  2
DASHDOTX2
 70
0
  3

 72
65
 73
0
 40
0.0
  0
LTYPE
  5
3E
100
AcDbSymbolTableRecord
100
AcDbLinetypeTableRecord
  2
DASHED
 70
0
  3

 72
65
 73
0
 40
0.0
  0
LTYPE
  5
3F
100
AcDbSymbolTableRecord
100
AcDbLinetypeTableRecord
  2
DASHED2
 70
0
  3

 72
65
 73
0
 40
0.0
  0
LTYPE
  5
40
100
AcDbSymbolTableRecord
100
AcDbLinetypeTableRecord
  2
DASHEDX2
 70
0
  3

 72
65
 73
0
 40
0.0
  0
LTYPE
  5
41
100
AcDbSymbolTableRecord
100
AcDbLinetypeTableRecord
  2
DIVIDE
 70
0
  3

 72
65
 73
0
 40
0.0
  0
LTYPE
  5
42
100
AcDbSymbolTableRecord
100
AcDbLinetypeTableRecord
  2
DIVIDE2
 70
0
  3

 72
65
 73
0
 40
0.0
  0
LTYPE
  5
43
100
AcDbSymbolTableRecord
100
AcDbLinetypeTableRecord
  2
DIVIDEX2
 70
0
  3

 72
65
 73
0
 40
0.0
  0
LTYPE
  5
44
100
AcDbSymbolTableRecord
100
AcDbLinetypeTableRecord
  2
DOT
 70
0
  3

 72
65
 73
0
 40
0.0
  0
LTYPE
  5
45
100
AcDbSymbolTableRecord
100
AcDbLinetypeTableRecord
  2
DOT2
 70
0
  3

 72
65
 73
0
 40
0.0
  0
LTYPE
  5
46
100
AcDbSymbolTableRecord
100
AcDbLinetypeTableRecord
  2
DOTX2
 70
0
  3

 72
65
 73
0
 40
0.0
  0
ENDTAB
  0
TABLE
  2
LAYER
  5
2
100
AcDbSymbolTable
 70
1
  0
LAYER
  5
10
100
AcDbSymbolTableRecord
100
AcDbLayerTableRecord
  2
0
 70
0
 62
-1
420
0
  6
CONTINUOUS
370
1
390
F
  0
ENDTAB
  0
STYLE
  5
47
100
AcDbSymbolTableRecord
100
AcDbTextStyleTableRecord
  2

 70
0
 40
0.0
 41
0.0
 50
0.0
 71
0
 42
0.0
  3

  4

1001
ACAD
1000

1071
0
  0
TABLE
  2
VIEW
  5
6
100
AcDbSymbolTable
 70
0
  0
ENDTAB
  0
TABLE
  2
UCS
  5
7
100
AcDbSymbolTable
 70
0
  0
ENDTAB
  0
TABLE
  2
APPID
  5
9
100
AcDbSymbolTable
 70
1
  0
APPID
  5
12
100
AcDbSymbolTableRecord
100
AcDbRegAppTableRecord
  2
ACAD
 70
0
  0
ENDTAB
  0
TABLE
  2
DIMSTYLE
  5
A
100
AcDbSymbolTable
 70
1
100
AcDbDimStyleTable
 71
0
  0
DIMSTYLE
105
27
100
AcDbSymbolTableRecord
100
AcDbDimStyleTableRecord
  2
Standard
 41
1.0
 42
1.0
 43
3.75
 44
1.0
 70
0
 73
0
 74
0
 77
1
 78
8
140
1.0
141
2.5
143
0.03937007874016
147
1.0
171
3
172
1
271
2
272
2
274
3
278
44
283
0
284
8
340
0
  0
ENDTAB
  0
TABLE
  2
BLOCK_RECORD
  5
1
100
AcDbSymbolTable
 70
1
  0
BLOCK_RECORD
  5
1F
100
AcDbSymbolTableRecord
100
AcDbBlockTableRecord
  2
*Model_Space
340
22
  0
BLOCK_RECORD
  5
1B
100
AcDbSymbolTableRecord
100
AcDbBlockTableRecord
  2
*Paper_Space
340
1E
  0
BLOCK_RECORD
  5
23
100
AcDbSymbolTableRecord
100
AcDbBlockTableRecord
  2
*Paper_Space0
340
26
  0
BLOCK_RECORD
  5
48
100
AcDbSymbolTableRecord
100
AcDbBlockTableRecord
  2
myblock1
340
0
  0
BLOCK_RECORD
  5
49
100
AcDbSymbolTableRecord
100
AcDbBlockTableRecord
  2
myblock2
340
0
  0
ENDTAB
  0
ENDSEC
  0
SECTION
  2
BLOCKS
  0
BLOCK
  5
20
100
AcDbEntity
  8
0
100
AcDbBlockBegin
  2
*Model_Space
 70
0
 10
0.0
 20
0.0
 30
0.0
  3
*Model_Space
  1

  0
ENDBLK
  5
21
100
AcDbEntity
  8
0
100
AcDbBlockEnd
  0
BLOCK
  5
1C
100
AcDbEntity
 67
1
  8
0
100
AcDbBlockBegin
  2
*Paper_Space
 70
0
 10
0.0
 20
0.0
 30
0.0
  3
*Paper_Space
  1

  0
ENDBLK
  5
1D
100
AcDbEntity
 67
1
  8
0
100
AcDbBlockEnd
  0
BLOCK
  5
24
100
AcDbEntity
  8
0
100
AcDbBlockBegin
  2
*Paper_Space0
 70
0
 10
0.0
 20
0.0
 30
0.0
  3
*Paper_Space0
  1

  0
ENDBLK
  5
25
100
AcDbEntity
  8
0
100
AcDbBlockEnd
  0
BLOCK
  5
4A
100
AcDbEntity
  8
0
100
AcDbBlockBegin
  2
myblock1
 70
0
 10
0.0
 20
0.0
 30
0.0
  3
myblock1
  1

  0
ENDBLK
  5
4B
100
AcDbEntity
  8
0
100
AcDbBlockEnd
  0
BLOCK
  5
4C
100
AcDbEntity
  8
0
100
AcDbBlockBegin
  2
myblock2
 70
0
 10
0.0
 20
0.0
 30
0.0
  3
myblock2
  1

  0
ENDBLK
  5
4D
100
AcDbEntity
  8
0
100
AcDbBlockEnd
  0
ENDSEC
  0
SECTION
  2
ENTITIES
  0
LWPOLYLINE
  5
4E
100
AcDbEntity
  8
0
 62
-1
420
0
370
1
 48
1.0
  6
CONTINUOUS
100
AcDbPolyline
 90
74
 70
0
 10
284.80203247070312
 20
192.24354553222656
 30
0.0
 10
284.80850219726562
 20
191.97709655761719
 30
0.0
 10
284.82794189453125
 20
191.71273803710937
 30
0.0
 10
284.90814208984375
 20
191.19496154785156
 30
0.0
 10
285.03598022460937
 20
190.69659423828125
 30
0.0
 10
285.21145629882812
 20
190.21995544433594
 30
0.0
 10
285.43032836914062
 20
189.764892578125
 30
0.0
 10
285.69027709960937
 20
189.3359375
 30
0.0
 10
285.98931884765625
 20
188.93719482421875
 30
0.0
 10
286.32513427734375
 20
188.56669616699219
 30
0.0
 10
286.69354248046875
 20
188.23100280761719
 30
0.0
 10
287.09426879882812
 20
187.931884765625
 30
0.0
 10
287.5233154296875
 20
187.67195129394531
 30
0.0
 10
287.97830200195312
 20
187.453125
 30
0.0
 10
288.45498657226562
 20
187.27757263183594
 30
0.0
 10
288.95333862304687
 20
187.14974975585937
 30
0.0
 10
289.47122192382812
 20
187.06954956054687
 30
0.0
 10
289.7332763671875
 20
187.05009460449219
 30
0.0
 10
290.001953125
 20
187.04367065429687
 30
0.0
 10
290.2685546875
 20
187.05012512207031
 30
0.0
 10
290.53280639648437
 20
187.06954956054687
 30
0.0
 10
291.05068969726562
 20
187.14976501464844
 30
0.0
 10
291.54898071289062
 20
187.27754211425781
 30
0.0
 10
292.02560424804687
 20
187.453125
 30
0.0
 10
292.48068237304687
 20
187.67193603515625
 30
0.0
 10
292.90963745117187
 20
187.931884765625
 30
0.0
 10
293.308349609375
 20
188.23100280761719
 30
0.0
 10
293.67877197265625
 20
188.56669616699219
 30
0.0
 10
294.01467895507812
 20
188.93727111816406
 30
0.0
 10
294.3135986328125
 20
189.33592224121094
 30
0.0
 10
294.57363891601562
 20
189.76495361328125
 30
0.0
 10
294.79241943359375
 20
190.21995544433594
 30
0.0
 10
294.96798706054687
 20
190.69667053222656
 30
0.0
 10
295.0958251953125
 20
191.19488525390625
 30
0.0
 10
295.17379760742187
 20
191.71058654785156
 30
0.0
 10
295.19540405273438
 20
191.9749755859375
 30
0.0
 10
295.20196533203125
 20
192.24360656738281
 30
0.0
 10
295.19546508789063
 20
192.51220703125
 30
0.0
 10
295.17599487304687
 20
192.77444458007812
 30
0.0
 10
295.09588623046875
 20
193.29222106933594
 30
0.0
 10
294.96795654296875
 20
193.79061889648437
 30
0.0
 10
294.79244995117187
 20
194.26727294921875
 30
0.0
 10
294.57363891601562
 20
194.72225952148437
 30
0.0
 10
294.31362915039062
 20
195.15119934082031
 30
0.0
 10
294.01461791992187
 20
195.55207824707031
 30
0.0
 10
293.67877197265625
 20
195.92050170898437
 30
0.0
 10
293.30831909179687
 20
196.25627136230469
 30
0.0
 10
292.90960693359375
 20
196.55526733398438
 30
0.0
 10
292.48068237304687
 20
196.81527709960937
 30
0.0
 10
292.02560424804687
 20
197.0340576171875
 30
0.0
 10
291.5467529296875
 20
197.20957946777344
 30
0.0
 10
291.0484619140625
 20
197.33744812011719
 30
0.0
 10
290.53271484375
 20
197.41755676269531
 30
0.0
 10
290.2684326171875
 20
197.43705749511719
 30
0.0
 10
290.001953125
 20
197.44358825683594
 30
0.0
 10
289.73333740234375
 20
197.43702697753906
 30
0.0
 10
289.47116088867187
 20
197.41755676269531
 30
0.0
 10
288.95330810546875
 20
197.33735656738281
 30
0.0
 10
288.45498657226562
 20
197.2095947265625
 30
0.0
 10
287.97830200195312
 20
197.0340576171875
 30
0.0
 10
287.5233154296875
 20
196.81529235839844
 30
0.0
 10
287.09426879882812
 20
196.55523681640625
 30
0.0
 10
286.6934814453125
 20
196.25627136230469
 30
0.0
 10
286.32516479492187
 20
195.92042541503906
 30
0.0
 10
285.98934936523437
 20
195.552001953125
 30
0.0
 10
285.69024658203125
 20
195.15119934082031
 30
0.0
 10
285.43032836914062
 20
194.72227478027344
 30
0.0
 10
285.21145629882812
 20
194.26727294921875
 30
0.0
 10
285.03598022460937
 20
193.79055786132812
 30
0.0
 10
284.90814208984375
 20
193.292236328125
 30
0.0
 10
284.82797241210937
 20
192.77435302734375
 30
0.0
 10
284.80850219726562
 20
192.51217651367188
 30
0.0
 10
284.80203247070312
 20
192.24354553222656
 30
0.0
 10
284.80203247070312
 20
192.24354553222656
 30
0.0
  0
LWPOLYLINE
  5
4F
100
AcDbEntity
  8
0
 62
-1
420
0
370
1
 48
1.0
  6
CONTINUOUS
100
AcDbPolyline
 90
34
 70
0
 10
285.09954833984375
 20
199.49606323242187
 30
0.0
 10
285.11709594726562
 20
199.31349182128906
 30
0.0
 10
285.16958618164062
 20
199.14605712890625
 30
0.0
 10
285.25210571289062
 20
198.99354553222656
 30
0.0
 10
285.362060546875
 20
198.85850524902344
 30
0.0
 10
285.49710083007812
 20
198.74847412109375
 30
0.0
 10
285.64950561523437
 20
198.66606140136719
 30
0.0
 10
285.81710815429687
 20
198.61360168457031
 30
0.0
 10
285.99960327148437
 20
198.59605407714844
 30
0.0
 10
286.18206787109375
 20
198.61354064941406
 30
0.0
 10
286.34957885742187
 20
198.66600036621094
 30
0.0
 10
286.50213623046875
 20
198.74847412109375
 30
0.0
 10
286.63705444335937
 20
198.85848999023437
 30
0.0
 10
286.74703979492187
 20
198.99356079101562
 30
0.0
 10
286.82962036132812
 20
199.14605712890625
 30
0.0
 10
286.88214111328125
 20
199.31349182128906
 30
0.0
 10
286.89956665039063
 20
199.49604797363281
 30
0.0
 10
286.88204956054687
 20
199.67857360839844
 30
0.0
 10
286.82958984375
 20
199.8460693359375
 30
0.0
 10
286.74710083007812
 20
199.99855041503906
 30
0.0
 10
286.63711547851562
 20
200.13352966308594
 30
0.0
 10
286.5020751953125
 20
200.2435302734375
 30
0.0
 10
286.34957885742187
 20
200.32609558105469
 30
0.0
 10
286.18209838867187
 20
200.37850952148437
 30
0.0
 10
285.99954223632812
 20
200.39605712890625
 30
0.0
 10
285.81704711914062
 20
200.37855529785156
 30
0.0
 10
285.64956665039062
 20
200.32603454589844
 30
0.0
 10
285.4970703125
 20
200.2435302734375
 30
0.0
 10
285.36203002929687
 20
200.13352966308594
 30
0.0
 10
285.25210571289062
 20
199.99855041503906
 30
0.0
 10
285.16958618164062
 20
199.84603881835937
 30
0.0
 10
285.1170654296875
 20
199.67851257324219
 30
0.0
 10
285.09954833984375
 20
199.49606323242187
 30
0.0
 10
285.09954833984375
 20
199.49606323242187
 30
0.0
  0
LWPOLYLINE
  5
50
100
AcDbEntity
  8
0
 62
-1
420
0
370
1
 48
1.0
  6
CONTINUOUS
100
AcDbPolyline
 90
34
 70
0
 10
293.09957885742187
 20
199.49606323242187
 30
0.0
 10
293.11700439453125
 20
199.31352233886719
 30
0.0
 10
293.1695556640625
 20
199.14616394042969
 30
0.0
 10
293.25204467773437
 20
198.99357604980469
 30
0.0
 10
293.362060546875
 20
198.85853576660156
 30
0.0
 10
293.49710083007812
 20
198.74858093261719
 30
0.0
 10
293.64956665039062
 20
198.666015625
 30
0.0
 10
293.81704711914062
 20
198.613525390625
 30
0.0
 10
293.99957275390625
 20
198.59609985351562
 30
0.0
 10
294.18206787109375
 20
198.61360168457031
 30
0.0
 10
294.34954833984375
 20
198.66610717773437
 30
0.0
 10
294.50201416015625
 20
198.74851989746094
 30
0.0
 10
294.6370849609375
 20
198.8585205078125
 30
0.0
 10
294.7470703125
 20
198.99359130859375
 30
0.0
 10
294.82958984375
 20
199.14610290527344
 30
0.0
 10
294.88211059570312
 20
199.3135986328125
 30
0.0
 10
294.8995361328125
 20
199.49615478515625
 30
0.0
 10
294.88211059570312
 20
199.67852783203125
 30
0.0
 10
294.82958984375
 20
199.84608459472656
 30
0.0
 10
294.74703979492187
 20
199.99853515625
 30
0.0
 10
294.63711547851562
 20
200.133544921875
 30
0.0
 10
294.50210571289062
 20
200.24354553222656
 30
0.0
 10
294.34954833984375
 20
200.32603454589844
 30
0.0
 10
294.18206787109375
 20
200.3785400390625
 30
0.0
 10
293.99957275390625
 20
200.39605712890625
 30
0.0
 10
293.81710815429687
 20
200.37855529785156
 30
0.0
 10
293.64950561523437
 20
200.32601928710937
 30
0.0
 10
293.4970703125
 20
200.24357604980469
 30
0.0
 10
293.362060546875
 20
200.13352966308594
 30
0.0
 10
293.2520751953125
 20
199.9986572265625
 30
0.0
 10
293.16952514648437
 20
199.8460693359375
 30
0.0
 10
293.1170654296875
 20
199.67852783203125
 30
0.0
 10
293.09957885742187
 20
199.49606323242187
 30
0.0
 10
293.09957885742187
 20
199.49606323242187
 30
0.0
  0
LWPOLYLINE
  5
51
100
AcDbEntity
  8
0
 62
-1
420
0
370
1
 48
1.0
  6
CONTINUOUS
100
AcDbPolyline
 90
34
 70
0
 10
285.10211181640625
 20
185.00100708007812
 30
0.0
 10
285.11959838867187
 20
184.81857299804687
 30
0.0
 10
285.17208862304688
 20
184.65110778808594
 30
0.0
 10
285.25460815429687
 20
184.49859619140625
 30
0.0
 10
285.3646240234375
 20
184.3636474609375
 30
0.0
 10
285.49713134765625
 20
184.25352478027344
 30
0.0
 10
285.64959716796875
 20
184.17111206054687
 30
0.0
 10
285.81954956054687
 20
184.11856079101562
 30
0.0
 10
285.99957275390625
 20
184.10102844238281
 30
0.0
 10
286.18209838867187
 20
184.11856079101562
 30
0.0
 10
286.34957885742187
 20
184.17109680175781
 30
0.0
 10
286.50213623046875
 20
184.25352478027344
 30
0.0
 10
286.63714599609375
 20
184.3636474609375
 30
0.0
 10
286.7470703125
 20
184.49851989746094
 30
0.0
 10
286.82965087890625
 20
184.65109252929687
 30
0.0
 10
286.88211059570312
 20
184.81857299804687
 30
0.0
 10
286.89956665039063
 20
185.0010986328125
 30
0.0
 10
286.882080078125
 20
185.18107604980469
 30
0.0
 10
286.82958984375
 20
185.35101318359375
 30
0.0
 10
286.7470703125
 20
185.50352478027344
 30
0.0
 10
286.63714599609375
 20
185.63607788085937
 30
0.0
 10
286.50213623046875
 20
185.74598693847656
 30
0.0
 10
286.34957885742187
 20
185.83114624023437
 30
0.0
 10
286.18209838867187
 20
185.88365173339844
 30
0.0
 10
285.99957275390625
 20
185.90101623535156
 30
0.0
 10
285.81964111328125
 20
185.88360595703125
 30
0.0
 10
285.64959716796875
 20
185.83099365234375
 30
0.0
 10
285.49713134765625
 20
185.74598693847656
 30
0.0
 10
285.3646240234375
 20
185.63607788085937
 30
0.0
 10
285.25460815429687
 20
185.50360107421875
 30
0.0
 10
285.17208862304688
 20
185.35108947753906
 30
0.0
 10
285.11956787109375
 20
185.18106079101562
 30
0.0
 10
285.10211181640625
 20
185.00100708007812
 30
0.0
 10
285.10211181640625
 20
185.00100708007812
 30
0.0
  0
LWPOLYLINE
  5
52
100
AcDbEntity
  8
0
 62
-1
420
0
370
1
 48
1.0
  6
CONTINUOUS
100
AcDbPolyline
 90
34
 70
0
 10
293.0970458984375
 20
184.99853515625
 30
0.0
 10
293.11459350585937
 20
184.81614685058594
 30
0.0
 10
293.1671142578125
 20
184.64860534667969
 30
0.0
 10
293.24957275390625
 20
184.49603271484375
 30
0.0
 10
293.35958862304687
 20
184.36106872558594
 30
0.0
 10
293.49459838867187
 20
184.25112915039062
 30
0.0
 10
293.6470947265625
 20
184.16859436035156
 30
0.0
 10
293.8145751953125
 20
184.1160888671875
 30
0.0
 10
293.99710083007812
 20
184.09854125976562
 30
0.0
 10
294.1795654296875
 20
184.11614990234375
 30
0.0
 10
294.34707641601562
 20
184.16867065429687
 30
0.0
 10
294.4996337890625
 20
184.25108337402344
 30
0.0
 10
294.63461303710937
 20
184.36106872558594
 30
0.0
 10
294.74459838867187
 20
184.49606323242187
 30
0.0
 10
294.8271484375
 20
184.64852905273437
 30
0.0
 10
294.87960815429687
 20
184.81614685058594
 30
0.0
 10
294.89712524414062
 20
184.99861145019531
 30
0.0
 10
294.87960815429687
 20
185.18115234375
 30
0.0
 10
294.8271484375
 20
185.3485107421875
 30
0.0
 10
294.74462890625
 20
185.50102233886719
 30
0.0
 10
294.63461303710937
 20
185.63612365722656
 30
0.0
 10
294.49960327148437
 20
185.74603271484375
 30
0.0
 10
294.34710693359375
 20
185.82864379882812
 30
0.0
 10
294.17962646484375
 20
185.88114929199219
 30
0.0
 10
293.99710083007812
 20
185.89854431152344
 30
0.0
 10
293.81460571289062
 20
185.88111877441406
 30
0.0
 10
293.64712524414062
 20
185.82861328125
 30
0.0
 10
293.49459838867187
 20
185.74609375
 30
0.0
 10
293.35955810546875
 20
185.63607788085937
 30
0.0
 10
293.24957275390625
 20
185.50103759765625
 30
0.0
 10
293.16705322265625
 20
185.34852600097656
 30
0.0
 10
293.11459350585937
 20
185.18112182617187
 30
0.0
 10
293.0970458984375
 20
184.99853515625
 30
0.0
 10
293.0970458984375
 20
184.99853515625
 30
0.0
  0
LWPOLYLINE
  5
53
100
AcDbEntity
  8
0
 62
-1
420
0
370
1
 48
1.0
  6
CONTINUOUS
100
AcDbPolyline
 90
132
 70
0
 10
292.5772705078125
 20
150.03240966796875
 30
0.0
 10
295.14227294921875
 20
150.12991333007812
 30
0.0
 10
297.6922607421875
 20
150.29238891601562
 30
0.0
 10
300.22225952148437
 20
150.51741027832031
 30
0.0
 10
302.73226928710937
 20
150.80239868164062
 30
0.0
 10
305.22726440429688
 20
151.15242004394531
 30
0.0
 10
307.69979858398437
 20
151.56242370605469
 30
0.0
 10
310.14974975585938
 20
152.03239440917969
 30
0.0
 10
312.57977294921875
 20
152.55990600585937
 30
0.0
 10
314.98727416992187
 20
153.1474609375
 30
0.0
 10
317.37225341796875
 20
153.79244995117187
 30
0.0
 10
319.73477172851562
 20
154.49493408203125
 30
0.0
 10
322.06976318359375
 20
155.25495910644531
 30
0.0
 10
324.3797607421875
 20
156.06745910644531
 30
0.0
 10
326.66470336914062
 20
156.93740844726562
 30
0.0
 10
328.92227172851563
 20
157.857421875
 30
0.0
 10
331.14971923828125
 20
158.83493041992187
 30
0.0
 10
333.3497314453125
 20
159.86238098144531
 30
0.0
 10
335.52224731445312
 20
160.93992614746094
 30
0.0
 10
337.6622314453125
 20
162.0699462890625
 30
0.0
 10
339.77218627929687
 20
163.24992370605469
 30
0.0
 10
339.99969482421875
 20
163.38435363769531
 30
0.0
 10
339.96722412109375
 20
165.96243286132812
 30
0.0
 10
339.86972045898437
 20
168.52743530273438
 30
0.0
 10
339.7071533203125
 20
171.07743835449219
 30
0.0
 10
339.482177734375
 20
173.60746765136719
 30
0.0
 10
339.19723510742187
 20
176.117431640625
 30
0.0
 10
338.84722900390625
 20
178.61238098144531
 30
0.0
 10
338.43719482421875
 20
181.08494567871094
 30
0.0
 10
337.96722412109375
 20
183.53492736816406
 30
0.0
 10
337.439697265625
 20
185.96492004394531
 30
0.0
 10
336.85220336914062
 20
188.37242126464844
 30
0.0
 10
336.20718383789062
 20
190.75740051269531
 30
0.0
 10
335.50469970703125
 20
193.11988830566406
 30
0.0
 10
334.74468994140625
 20
195.45486450195312
 30
0.0
 10
333.93218994140625
 20
197.76487731933594
 30
0.0
 10
333.06219482421875
 20
200.04988098144531
 30
0.0
 10
332.1422119140625
 20
202.307373046875
 30
0.0
 10
331.16470336914063
 20
204.53486633300781
 30
0.0
 10
330.13717651367187
 20
206.73489379882812
 30
0.0
 10
329.0596923828125
 20
208.90733337402344
 30
0.0
 10
327.92962646484375
 20
211.04739379882812
 30
0.0
 10
326.74960327148437
 20
213.15739440917969
 30
0.0
 10
325.52215576171875
 20
215.23486328125
 30
0.0
 10
324.24465942382813
 20
217.27981567382812
 30
0.0
 10
322.92218017578125
 20
219.29238891601562
 30
0.0
 10
321.54965209960937
 20
221.2698974609375
 30
0.0
 10
320.13214111328125
 20
223.21235656738281
 30
0.0
 10
318.66970825195312
 20
225.11981201171875
 30
0.0
 10
317.1646728515625
 20
226.99235534667969
 30
0.0
 10
315.61465454101562
 20
228.82481384277344
 30
0.0
 10
314.02212524414062
 20
230.61982727050781
 30
0.0
 10
312.38720703125
 20
232.37481689453125
 30
0.0
 10
310.70965576171875
 20
234.09231567382812
 30
0.0
 10
308.9921875
 20
235.76980590820312
 30
0.0
 10
307.2371826171875
 20
237.40480041503906
 30
0.0
 10
305.44223022460937
 20
238.997314453125
 30
0.0
 10
303.60968017578125
 20
240.54728698730469
 30
0.0
 10
301.73721313476562
 20
242.05230712890625
 30
0.0
 10
299.82968139648437
 20
243.5147705078125
 30
0.0
 10
297.88714599609375
 20
244.93228149414062
 30
0.0
 10
295.90966796875
 20
246.30477905273437
 30
0.0
 10
293.89712524414062
 20
247.6273193359375
 30
0.0
 10
291.8521728515625
 20
248.90475463867187
 30
0.0
 10
289.99774169921875
 20
250.00045776367188
 30
0.0
 10
288.14712524414062
 20
248.90475463867187
 30
0.0
 10
286.1021728515625
 20
247.62979125976562
 30
0.0
 10
284.08969116210937
 20
246.30479431152344
 30
0.0
 10
282.1121826171875
 20
244.93226623535156
 30
0.0
 10
280.16964721679687
 20
243.51725769042969
 30
0.0
 10
278.26214599609375
 20
242.05476379394531
 30
0.0
 10
276.38970947265625
 20
240.54730224609375
 30
0.0
 10
274.55722045898437
 20
238.99729919433594
 30
0.0
 10
272.76217651367187
 20
237.40480041503906
 30
0.0
 10
271.00723266601562
 20
235.76976013183594
 30
0.0
 10
269.28970336914062
 20
234.09233093261719
 30
0.0
 10
267.61221313476562
 20
232.37728881835937
 30
0.0
 10
265.97723388671875
 20
230.61985778808594
 30
0.0
 10
264.38470458984375
 20
228.82476806640625
 30
0.0
 10
262.83474731445312
 20
226.99235534667969
 30
0.0
 10
261.32974243164062
 20
225.12229919433594
 30
0.0
 10
259.86724853515625
 20
223.21478271484375
 30
0.0
 10
258.44976806640625
 20
221.27230834960937
 30
0.0
 10
257.0772705078125
 20
219.29483032226562
 30
0.0
 10
255.7547607421875
 20
217.28230285644531
 30
0.0
 10
254.47723388671875
 20
215.23728942871094
 30
0.0
 10
253.249755859375
 20
213.1597900390625
 30
0.0
 10
252.06976318359375
 20
211.04981994628906
 30
0.0
 10
250.93977355957031
 20
208.90728759765625
 30
0.0
 10
249.86231994628906
 20
206.7373046875
 30
0.0
 10
248.83476257324219
 20
204.53727722167969
 30
0.0
 10
247.85726928710937
 20
202.30729675292969
 30
0.0
 10
246.93727111816406
 20
200.04981994628906
 30
0.0
 10
246.06724548339844
 20
197.76731872558594
 30
0.0
 10
245.2547607421875
 20
195.45481872558594
 30
0.0
 10
244.4947509765625
 20
193.11984252929687
 30
0.0
 10
243.79229736328125
 20
190.75984191894531
 30
0.0
 10
243.14724731445312
 20
188.37480163574219
 30
0.0
 10
242.55978393554687
 20
185.96733093261719
 30
0.0
 10
242.03228759765625
 20
183.537353515625
 30
0.0
 10
241.56228637695312
 20
181.08486938476562
 30
0.0
 10
241.15228271484375
 20
178.61236572265625
 30
0.0
 10
240.80227661132812
 20
176.11984252929687
 30
0.0
 10
240.51731872558594
 20
173.60737609863281
 30
0.0
 10
240.29229736328125
 20
171.07736206054687
 30
0.0
 10
240.12982177734375
 20
168.52737426757812
 30
0.0
 10
240.03231811523437
 20
165.96237182617187
 30
0.0
 10
239.99986267089844
 20
163.38233947753906
 30
0.0
 10
239.99986267089844
 20
163.37983703613281
 30
0.0
 10
240.21980285644531
 20
163.24986267089844
 30
0.0
 10
242.32987976074219
 20
162.06983947753906
 30
0.0
 10
244.46980285644531
 20
160.93986511230469
 30
0.0
 10
246.642333984375
 20
159.86236572265625
 30
0.0
 10
248.84233093261719
 20
158.83486938476562
 30
0.0
 10
251.072265625
 20
157.85733032226562
 30
0.0
 10
253.32980346679687
 20
156.93736267089844
 30
0.0
 10
255.61231994628906
 20
156.0673828125
 30
0.0
 10
257.92233276367188
 20
155.25486755371094
 30
0.0
 10
260.259765625
 20
154.49485778808594
 30
0.0
 10
262.61978149414062
 20
153.7923583984375
 30
0.0
 10
265.00479125976562
 20
153.14738464355469
 30
0.0
 10
267.41229248046875
 20
152.55986022949219
 30
0.0
 10
269.84228515625
 20
152.03233337402344
 30
0.0
 10
272.29476928710937
 20
151.5623779296875
 30
0.0
 10
274.76727294921875
 20
151.15237426757813
 30
0.0
 10
277.25979614257812
 20
150.80235290527344
 30
0.0
 10
279.77224731445312
 20
150.51734924316406
 30
0.0
 10
282.30224609375
 20
150.29240417480469
 30
0.0
 10
284.852294921875
 20
150.1298828125
 30
0.0
 10
287.41726684570312
 20
150.03237915039062
 30
0.0
 10
289.99728393554687
 20
149.99989318847656
 30
0.0
 10
292.5772705078125
 20
150.03240966796875
 30
0.0
  0
LWPOLYLINE
  5
54
100
AcDbEntity
  8
0
 62
-1
420
0
370
1
 48
1.0
  6
CONTINUOUS
100
AcDbPolyline
 90
49
 70
0
 10
288.39749145507812
 20
245.40248107910156
 30
0.0
 10
288.40496826171875
 20
245.239990234375
 30
0.0
 10
288.42999267578125
 20
245.07998657226562
 30
0.0
 10
288.469970703125
 20
244.927490234375
 30
0.0
 10
288.52249145507812
 20
244.77998352050781
 30
0.0
 10
288.66998291015625
 20
244.50749206542969
 30
0.0
 10
288.86749267578125
 20
244.27249145507812
 30
0.0
 10
289.10247802734375
 20
244.07498168945313
 30
0.0
 10
289.37496948242187
 20
243.927490234375
 30
0.0
 10
289.52249145507812
 20
243.87498474121094
 30
0.0
 10
289.67498779296875
 20
243.83499145507812
 30
0.0
 10
289.83499145507812
 20
243.80998229980469
 30
0.0
 10
289.99746704101562
 20
243.802490234375
 30
0.0
 10
290.1624755859375
 20
243.80998229980469
 30
0.0
 10
290.31997680664062
 20
243.83499145507812
 30
0.0
 10
290.4749755859375
 20
243.87498474121094
 30
0.0
 10
290.61996459960937
 20
243.927490234375
 30
0.0
 10
290.89248657226562
 20
244.07498168945313
 30
0.0
 10
291.12997436523437
 20
244.27249145507812
 30
0.0
 10
291.32498168945312
 20
244.50749206542969
 30
0.0
 10
291.47247314453125
 20
244.77998352050781
 30
0.0
 10
291.52496337890625
 20
244.927490234375
 30
0.0
 10
291.56497192382812
 20
245.07998657226562
 30
0.0
 10
291.5899658203125
 20
245.239990234375
 30
0.0
 10
291.59747314453125
 20
245.40248107910156
 30
0.0
 10
291.5899658203125
 20
245.56748962402344
 30
0.0
 10
291.56497192382812
 20
245.72499084472656
 30
0.0
 10
291.52496337890625
 20
245.87998962402344
 30
0.0
 10
291.47247314453125
 20
246.02499389648437
 30
0.0
 10
291.32498168945312
 20
246.2974853515625
 30
0.0
 10
291.12997436523437
 20
246.53498840332031
 30
0.0
 10
290.89248657226562
 20
246.72998046875
 30
0.0
 10
290.61996459960937
 20
246.87748718261719
 30
0.0
 10
290.4749755859375
 20
246.92999267578125
 30
0.0
 10
290.31997680664062
 20
246.96998596191406
 30
0.0
 10
290.1624755859375
 20
246.99497985839844
 30
0.0
 10
289.99746704101562
 20
247.00248718261719
 30
0.0
 10
289.83499145507812
 20
246.99497985839844
 30
0.0
 10
289.67498779296875
 20
246.96998596191406
 30
0.0
 10
289.52249145507812
 20
246.92999267578125
 30
0.0
 10
289.37496948242187
 20
246.87748718261719
 30
0.0
 10
289.10247802734375
 20
246.72998046875
 30
0.0
 10
288.86749267578125
 20
246.53498840332031
 30
0.0
 10
288.66998291015625
 20
246.2974853515625
 30
0.0
 10
288.52249145507812
 20
246.02499389648437
 30
0.0
 10
288.469970703125
 20
245.87998962402344
 30
0.0
 10
288.42999267578125
 20
245.72499084472656
 30
0.0
 10
288.40496826171875
 20
245.56748962402344
 30
0.0
 10
288.39749145507812
 20
245.40248107910156
 30
0.0
  0
LWPOLYLINE
  5
55
100
AcDbEntity
  8
0
 62
-1
420
0
370
1
 48
1.0
  6
CONTINUOUS
100
AcDbPolyline
 90
45
 70
0
 10
244.77249145507812
 20
164.38249206542969
 30
0.0
 10
245.03498840332031
 20
164.57249450683594
 30
0.0
 10
245.24998474121094
 20
164.802490234375
 30
0.0
 10
245.40998840332031
 20
165.06748962402344
 30
0.0
 10
245.51748657226562
 20
165.35499572753906
 30
0.0
 10
245.56748962402344
 20
165.65748596191406
 30
0.0
 10
245.57249450683594
 20
165.80998229980469
 30
0.0
 10
245.55998229980469
 20
165.96498107910156
 30
0.0
 10
245.53248596191406
 20
166.1199951171875
 30
0.0
 10
245.489990234375
 20
166.27249145507812
 30
0.0
 10
245.43247985839844
 20
166.4224853515625
 30
0.0
 10
245.35748291015625
 20
166.56748962402344
 30
0.0
 10
245.16748046875
 20
166.82998657226562
 30
0.0
 10
244.93748474121094
 20
167.04498291015625
 30
0.0
 10
244.67498779296875
 20
167.20748901367187
 30
0.0
 10
244.38748168945312
 20
167.31498718261719
 30
0.0
 10
244.08499145507812
 20
167.364990234375
 30
0.0
 10
243.92999267578125
 20
167.36749267578125
 30
0.0
 10
243.77499389648437
 20
167.35748291015625
 30
0.0
 10
243.61997985839844
 20
167.32998657226562
 30
0.0
 10
243.46748352050781
 20
167.28749084472656
 30
0.0
 10
243.31748962402344
 20
167.22999572753906
 30
0.0
 10
243.1724853515625
 20
167.15498352050781
 30
0.0
 10
242.90998840332031
 20
166.96498107910156
 30
0.0
 10
242.69499206542969
 20
166.7349853515625
 30
0.0
 10
242.53498840332031
 20
166.46998596191406
 30
0.0
 10
242.427490234375
 20
166.1824951171875
 30
0.0
 10
242.37748718261719
 20
165.87998962402344
 30
0.0
 10
242.37248229980469
 20
165.72499084472656
 30
0.0
 10
242.38499450683594
 20
165.56999206542969
 30
0.0
 10
242.41249084472656
 20
165.41749572753906
 30
0.0
 10
242.45498657226562
 20
165.26248168945313
 30
0.0
 10
242.51248168945312
 20
165.11248779296875
 30
0.0
 10
242.58749389648437
 20
164.96748352050781
 30
0.0
 10
242.77748107910156
 20
164.70498657226562
 30
0.0
 10
243.00749206542969
 20
164.489990234375
 30
0.0
 10
243.27249145507812
 20
164.32998657226562
 30
0.0
 10
243.55998229980469
 20
164.22248840332031
 30
0.0
 10
243.86248779296875
 20
164.1724853515625
 30
0.0
 10
244.01498413085937
 20
164.16749572753906
 30
0.0
 10
244.16998291015625
 20
164.17999267578125
 30
0.0
 10
244.32498168945312
 20
164.20748901367188
 30
0.0
 10
244.47749328613281
 20
164.24998474121094
 30
0.0
 10
244.62748718261719
 20
164.3074951171875
 30
0.0
 10
244.77249145507812
 20
164.38249206542969
 30
0.0
  0
LWPOLYLINE
  5
56
100
AcDbEntity
  8
0
 62
-1
420
0
370
1
 48
1.0
  6
CONTINUOUS
100
AcDbPolyline
 90
45
 70
0
 10
336.82247924804687
 20
167.06748962402344
 30
0.0
 10
336.677490234375
 20
167.14248657226562
 30
0.0
 10
336.5274658203125
 20
167.19998168945312
 30
0.0
 10
336.37496948242187
 20
167.24249267578125
 30
0.0
 10
336.219970703125
 20
167.26998901367187
 30
0.0
 10
336.06497192382812
 20
167.28248596191406
 30
0.0
 10
335.9124755859375
 20
167.27748107910156
 30
0.0
 10
335.6099853515625
 20
167.22749328613281
 30
0.0
 10
335.32247924804687
 20
167.1199951171875
 30
0.0
 10
335.05746459960937
 20
166.95999145507812
 30
0.0
 10
334.82748413085937
 20
166.7449951171875
 30
0.0
 10
334.63748168945312
 20
166.48248291015625
 30
0.0
 10
334.56246948242187
 20
166.33749389648437
 30
0.0
 10
334.50497436523437
 20
166.18748474121094
 30
0.0
 10
334.46246337890625
 20
166.03498840332031
 30
0.0
 10
334.43496704101562
 20
165.87998962402344
 30
0.0
 10
334.4224853515625
 20
165.72499084472656
 30
0.0
 10
334.427490234375
 20
165.56999206542969
 30
0.0
 10
334.47747802734375
 20
165.26748657226562
 30
0.0
 10
334.58499145507812
 20
164.97999572753906
 30
0.0
 10
334.74496459960937
 20
164.71748352050781
 30
0.0
 10
334.95999145507812
 20
164.48748779296875
 30
0.0
 10
335.22247314453125
 20
164.2974853515625
 30
0.0
 10
335.36746215820313
 20
164.22248840332031
 30
0.0
 10
335.51748657226563
 20
164.16499328613281
 30
0.0
 10
335.6724853515625
 20
164.12248229980469
 30
0.0
 10
335.82498168945312
 20
164.09498596191406
 30
0.0
 10
335.97998046875
 20
164.08248901367188
 30
0.0
 10
336.13497924804687
 20
164.08749389648437
 30
0.0
 10
336.43746948242187
 20
164.13748168945312
 30
0.0
 10
336.7249755859375
 20
164.2449951171875
 30
0.0
 10
336.989990234375
 20
164.40498352050781
 30
0.0
 10
337.219970703125
 20
164.6199951171875
 30
0.0
 10
337.40997314453125
 20
164.88249206542969
 30
0.0
 10
337.4849853515625
 20
165.02748107910156
 30
0.0
 10
337.54248046875
 20
165.177490234375
 30
0.0
 10
337.58499145507812
 20
165.32998657226562
 30
0.0
 10
337.61248779296875
 20
165.4849853515625
 30
0.0
 10
337.62246704101562
 20
165.63998413085937
 30
0.0
 10
337.61996459960937
 20
165.79249572753906
 30
0.0
 10
337.56997680664062
 20
166.09498596191406
 30
0.0
 10
337.46246337890625
 20
166.38249206542969
 30
0.0
 10
337.29998779296875
 20
166.64749145507812
 30
0.0
 10
337.08499145507812
 20
166.87748718261719
 30
0.0
 10
336.82247924804687
 20
167.06748962402344
 30
0.0
  0
LWPOLYLINE
  5
57
100
AcDbEntity
  8
0
 62
-1
420
0
370
1
 48
1.0
  6
CONTINUOUS
100
AcDbPolyline
 90
2
 70
0
 10
239.9971923828125
 20
163.38185119628906
 30
0.0
 10
326.7347412109375
 20
213.45991516113281
 30
0.0
  0
LWPOLYLINE
  5
58
100
AcDbEntity
  8
0
 62
-1
420
0
370
1
 48
1.0
  6
CONTINUOUS
100
AcDbPolyline
 90
2
 70
0
 10
339.99716186523437
 20
163.38198852539062
 30
0.0
 10
253.25947570800781
 20
213.45988464355469
 30
0.0
  0
LWPOLYLINE
  5
59
100
AcDbEntity
  8
0
 62
-1
420
0
370
1
 48
1.0
  6
CONTINUOUS
100
AcDbPolyline
 90
2
 70
0
 10
289.99710083007812
 20
249.98442077636719
 30
0.0
 10
289.997802734375
 20
150.03242492675781
 30
0.0
  0
LWPOLYLINE
  5
5A
100
AcDbEntity
  8
0
 62
-1
420
0
370
1
 48
1.0
  6
CONTINUOUS
100
AcDbPolyline
 90
77
 70
0
 10
260.41644287109375
 20
206.8990478515625
 30
0.0
 10
259.53506469726562
 20
205.22792053222656
 30
0.0
 10
258.69464111328125
 20
203.53529357910156
 30
0.0
 10
257.89321899414062
 20
201.8193359375
 30
0.0
 10
257.1307373046875
 20
200.07991027832031
 30
0.0
 10
256.41311645507812
 20
198.31907653808594
 30
0.0
 10
255.73455810546875
 20
196.5386962890625
 30
0.0
 10
255.100830078125
 20
194.73497009277344
 30
0.0
 10
254.50798034667969
 20
192.91361999511719
 30
0.0
 10
253.96005249023437
 20
191.07284545898437
 30
0.0
 10
253.45700073242187
 20
189.21257019042969
 30
0.0
 10
252.99874877929687
 20
187.33473205566406
 30
0.0
 10
252.5872802734375
 20
185.4393310546875
 30
0.0
 10
252.220703125
 20
183.52632141113281
 30
0.0
 10
251.90087890625
 20
181.59779357910156
 30
0.0
 10
251.6279296875
 20
179.65367126464844
 30
0.0
 10
251.40560913085937
 20
177.69389343261719
 30
0.0
 10
251.2301025390625
 20
175.72047424316406
 30
0.0
 10
251.22552490234375
 20
175.64851379394531
 30
0.0
 10
259.288330078125
 20
180.3035888671875
 30
0.0
 10
259.32357788085938
 20
180.69973754882813
 30
0.0
 10
259.50027465820312
 20
182.25747680664062
 30
0.0
 10
259.71722412109375
 20
183.802734375
 30
0.0
 10
259.971435546875
 20
185.335693359375
 30
0.0
 10
260.26284790039062
 20
186.85623168945313
 30
0.0
 10
260.58984375
 20
188.36277770996094
 30
0.0
 10
260.95407104492187
 20
189.85536193847656
 30
0.0
 10
261.35400390625
 20
191.33406066894531
 30
0.0
 10
261.78952026367187
 20
192.79721069335937
 30
0.0
 10
262.2607421875
 20
194.24485778808594
 30
0.0
 10
262.76443481445312
 20
195.67857360839844
 30
0.0
 10
263.30386352539062
 20
197.09368896484375
 30
0.0
 10
263.87423706054687
 20
198.49333190917969
 30
0.0
 10
264.48028564453125
 20
199.87591552734375
 30
0.0
 10
265.11727905273437
 20
201.23980712890625
 30
0.0
 10
265.78533935546875
 20
202.585205078125
 30
0.0
 10
266.4859619140625
 20
203.91352844238281
 30
0.0
 10
267.21749877929687
 20
205.22169494628906
 30
0.0
 10
267.97854614257812
 20
206.50970458984375
 30
0.0
 10
268.77059936523437
 20
207.777587890625
 30
0.0
 10
269.5904541015625
 20
209.02528381347656
 30
0.0
 10
270.44143676757812
 20
210.25135803222656
 30
0.0
 10
271.32025146484375
 20
211.45565795898437
 30
0.0
 10
272.22702026367187
 20
212.63827514648437
 30
0.0
 10
273.1600341796875
 20
213.797607421875
 30
0.0
 10
274.12106323242187
 20
214.93377685546875
 30
0.0
 10
275.1083984375
 20
216.046630859375
 30
0.0
 10
276.12203979492187
 20
217.13623046875
 30
0.0
 10
277.16201782226562
 20
218.19949340820313
 30
0.0
 10
278.22689819335938
 20
219.23953247070312
 30
0.0
 10
279.31497192382812
 20
220.25320434570312
 30
0.0
 10
280.42779541015625
 20
221.24053955078125
 30
0.0
 10
281.56396484375
 20
222.2015380859375
 30
0.0
 10
282.724853515625
 20
223.13618469238281
 30
0.0
 10
283.90744018554687
 20
224.0428466796875
 30
0.0
 10
285.09951782226562
 20
224.91122436523437
 30
0.0
 10
285.09951782226562
 20
234.19497680664062
 30
0.0
 10
283.84970092773437
 20
233.3275146484375
 30
0.0
 10
282.33453369140625
 20
232.22373962402344
 30
0.0
 10
280.8466796875
 20
231.08303833007812
 30
0.0
 10
279.3861083984375
 20
229.90713500976562
 30
0.0
 10
277.95669555664062
 20
228.69816589355469
 30
0.0
 10
276.55670166015625
 20
227.45600891113281
 30
0.0
 10
275.18777465820313
 20
226.1806640625
 30
0.0
 10
273.84805297851562
 20
224.87225341796875
 30
0.0
 10
272.5396728515625
 20
223.53453063964844
 30
0.0
 10
271.264404296875
 20
222.16372680664062
 30
0.0
 10
270.02218627929687
 20
220.76353454589844
 30
0.0
 10
268.81314086914062
 20
219.33421325683594
 30
0.0
 10
267.63931274414062
 20
217.87562561035156
 30
0.0
 10
266.49853515625
 20
216.38775634765625
 30
0.0
 10
265.3929443359375
 20
214.87261962890625
 30
0.0
 10
264.3223876953125
 20
213.33018493652344
 30
0.0
 10
263.290771484375
 20
211.76042175292969
 30
0.0
 10
262.29437255859375
 20
210.165283203125
 30
0.0
 10
261.33685302734375
 20
208.54490661621094
 30
0.0
 10
260.41644287109375
 20
206.8990478515625
 30
0.0
  0
LWPOLYLINE
  5
5B
100
AcDbEntity
  8
0
 62
-1
420
0
370
1
 48
1.0
  6
CONTINUOUS
100
AcDbPolyline
 90
77
 70
0
 10
295.0994873046875
 20
224.76875305175781
 30
0.0
 10
296.09634399414062
 20
224.04130554199219
 30
0.0
 10
297.27896118164062
 20
223.13458251953125
 30
0.0
 10
298.43991088867187
 20
222.2015380859375
 30
0.0
 10
299.57598876953125
 20
221.24055480957031
 30
0.0
 10
300.68896484375
 20
220.25325012207031
 30
0.0
 10
301.77691650390625
 20
219.23956298828125
 30
0.0
 10
302.84182739257812
 20
218.19955444335937
 30
0.0
 10
303.88180541992187
 20
217.13470458984375
 30
0.0
 10
304.8955078125
 20
216.04664611816406
 30
0.0
 10
305.88284301757812
 20
214.93379211425781
 30
0.0
 10
306.84378051757813
 20
213.79763793945312
 30
0.0
 10
307.77688598632812
 20
212.63673400878906
 30
0.0
 10
308.68359375
 20
211.45408630371094
 30
0.0
 10
309.56246948242187
 20
210.24980163574219
 30
0.0
 10
310.41339111328125
 20
209.02377319335937
 30
0.0
 10
311.23333740234375
 20
207.77606201171875
 30
0.0
 10
312.02529907226562
 20
206.50819396972656
 30
0.0
 10
312.78628540039062
 20
205.22018432617187
 30
0.0
 10
313.51797485351562
 20
203.91201782226562
 30
0.0
 10
314.21853637695312
 20
202.58525085449219
 30
0.0
 10
314.88656616210937
 20
201.23829650878906
 30
0.0
 10
315.52362060546875
 20
199.87435913085937
 30
0.0
 10
316.12966918945312
 20
198.49330139160156
 30
0.0
 10
316.70004272460937
 20
197.09373474121094
 30
0.0
 10
317.23934936523437
 20
195.67701721191406
 30
0.0
 10
317.74313354492187
 20
194.24493408203125
 30
0.0
 10
318.21426391601562
 20
192.79728698730469
 30
0.0
 10
318.64987182617188
 20
191.33256530761719
 30
0.0
 10
319.04977416992187
 20
189.8538818359375
 30
0.0
 10
319.41400146484375
 20
188.36129760742187
 30
0.0
 10
319.74102783203125
 20
186.85469055175781
 30
0.0
 10
320.03240966796875
 20
185.33573913574219
 30
0.0
 10
320.28659057617187
 20
183.80287170410156
 30
0.0
 10
320.50363159179687
 20
182.25602722167969
 30
0.0
 10
320.6802978515625
 20
180.69981384277344
 30
0.0
 10
320.71572875976562
 20
180.30148315429687
 30
0.0
 10
328.778564453125
 20
175.64640808105469
 30
0.0
 10
328.77383422851562
 20
175.72056579589844
 30
0.0
 10
328.59829711914062
 20
177.6939697265625
 30
0.0
 10
328.3759765625
 20
179.65177917480469
 30
0.0
 10
328.10299682617187
 20
181.59785461425781
 30
0.0
 10
327.783203125
 20
183.52641296386719
 30
0.0
 10
327.41659545898437
 20
185.43742370605469
 30
0.0
 10
327.00515747070312
 20
187.33283996582031
 30
0.0
 10
326.54690551757812
 20
189.21063232421875
 30
0.0
 10
326.0438232421875
 20
191.07101440429688
 30
0.0
 10
325.495849609375
 20
192.9136962890625
 30
0.0
 10
324.90304565429687
 20
194.73503112792969
 30
0.0
 10
324.269287109375
 20
196.53683471679687
 30
0.0
 10
323.59072875976562
 20
198.319091796875
 30
0.0
 10
322.87310791015625
 20
200.07994079589844
 30
0.0
 10
322.11062622070312
 20
201.81741333007813
 30
0.0
 10
321.30917358398437
 20
203.53338623046875
 30
0.0
 10
320.46871948242187
 20
205.22798156738281
 30
0.0
 10
319.58731079101563
 20
206.89720153808594
 30
0.0
 10
318.66690063476562
 20
208.54298400878906
 30
0.0
 10
317.70944213867187
 20
210.16339111328125
 30
0.0
 10
316.71304321289062
 20
211.75848388671875
 30
0.0
 10
315.68154907226562
 20
213.32826232910156
 30
0.0
 10
314.61093139648437
 20
214.8707275390625
 30
0.0
 10
313.50527954101562
 20
216.38584899902344
 30
0.0
 10
312.36459350585937
 20
217.87371826171875
 30
0.0
 10
311.19061279296875
 20
219.33421325683594
 30
0.0
 10
309.98159790039062
 20
220.76358032226562
 30
0.0
 10
308.73944091796875
 20
222.1636962890625
 30
0.0
 10
307.46420288085938
 20
223.53256225585937
 30
0.0
 10
306.15570068359375
 20
224.87228393554687
 30
0.0
 10
304.81607055664062
 20
226.18070983886719
 30
0.0
 10
303.44720458984375
 20
227.45602416992187
 30
0.0
 10
302.04708862304687
 20
228.69816589355469
 30
0.0
 10
300.61767578125
 20
229.90711975097656
 30
0.0
 10
299.15707397460937
 20
231.08097839355469
 30
0.0
 10
297.66925048828125
 20
232.22177124023437
 30
0.0
 10
296.15411376953125
 20
233.32746887207031
 30
0.0
 10
295.09951782226562
 20
234.0594482421875
 30
0.0
 10
295.0994873046875
 20
224.76875305175781
 30
0.0
  0
LWPOLYLINE
  5
5C
100
AcDbEntity
  8
0
 62
-1
420
0
370
1
 48
1.0
  6
CONTINUOUS
100
AcDbPolyline
 90
75
 70
0
 10
257.8990478515625
 20
166.17137145996094
 30
0.0
 10
259.638427734375
 20
165.40892028808594
 30
0.0
 10
261.39932250976562
 20
164.69125366210937
 30
0.0
 10
263.1796875
 20
164.01268005371094
 30
0.0
 10
264.98147583007812
 20
163.37898254394531
 30
0.0
 10
266.80474853515625
 20
162.7861328125
 30
0.0
 10
268.64553833007812
 20
162.23823547363281
 30
0.0
 10
270.50582885742187
 20
161.73509216308594
 30
0.0
 10
272.38363647460937
 20
161.27685546875
 30
0.0
 10
274.27914428710937
 20
160.86540222167969
 30
0.0
 10
276.19198608398437
 20
160.49882507324219
 30
0.0
 10
278.12060546875
 20
160.17900085449219
 30
0.0
 10
280.06478881835937
 20
159.90599060058594
 30
0.0
 10
282.02450561523438
 20
159.68370056152344
 30
0.0
 10
283.9979248046875
 20
159.50820922851563
 30
0.0
 10
285.98687744140625
 20
159.38148498535156
 30
0.0
 10
287.98760986328125
 20
159.30540466308594
 30
0.0
 10
290.0
 20
159.28007507324219
 30
0.0
 10
292.01239013671875
 20
159.30545043945312
 30
0.0
 10
294.01309204101562
 20
159.3814697265625
 30
0.0
 10
296.00213623046875
 20
159.50820922851563
 30
0.0
 10
297.97552490234375
 20
159.68373107910156
 30
0.0
 10
299.93338012695312
 20
159.906005859375
 30
0.0
 10
301.87945556640625
 20
160.17901611328125
 30
0.0
 10
303.80801391601563
 20
160.49885559082031
 30
0.0
 10
305.71893310546875
 20
160.86541748046875
 30
0.0
 10
307.6143798828125
 20
161.27694702148437
 30
0.0
 10
309.49224853515625
 20
161.73518371582031
 30
0.0
 10
311.35250854492187
 20
162.23823547363281
 30
0.0
 10
313.1953125
 20
162.78617858886719
 30
0.0
 10
315.01654052734375
 20
163.37907409667969
 30
0.0
 10
316.81838989257812
 20
164.01278686523437
 30
0.0
 10
318.60067749023437
 20
164.69134521484375
 30
0.0
 10
320.36148071289062
 20
165.40898132324219
 30
0.0
 10
322.09896850585937
 20
166.17143249511719
 30
0.0
 10
323.80752563476562
 20
166.96945190429687
 30
0.0
 10
315.7215576171875
 20
171.63789367675781
 30
0.0
 10
315.51431274414062
 20
171.54106140136719
 30
0.0
 10
314.13330078125
 20
170.93504333496094
 30
0.0
 10
312.73370361328125
 20
170.36463928222656
 30
0.0
 10
311.31704711914062
 20
169.82525634765625
 30
0.0
 10
309.88482666015625
 20
169.321533203125
 30
0.0
 10
308.43722534179687
 20
168.850341796875
 30
0.0
 10
306.97247314453125
 20
168.41481018066406
 30
0.0
 10
305.49383544921875
 20
168.01492309570312
 30
0.0
 10
304.00119018554687
 20
167.65065002441406
 30
0.0
 10
302.49465942382812
 20
167.32365417480469
 30
0.0
 10
300.9757080078125
 20
167.03225708007812
 30
0.0
 10
299.44281005859375
 20
166.77801513671875
 30
0.0
 10
297.89593505859375
 20
166.56103515625
 30
0.0
 10
296.33978271484375
 20
166.38435363769531
 30
0.0
 10
294.77120971679687
 20
166.24485778808594
 30
0.0
 10
293.19021606445312
 20
166.14411926269531
 30
0.0
 10
291.5999755859375
 20
166.08363342285156
 30
0.0
 10
290.00039672851562
 20
166.06352233886719
 30
0.0
 10
288.40084838867187
 20
166.08364868164062
 30
0.0
 10
286.81057739257812
 20
166.14411926269531
 30
0.0
 10
285.22958374023438
 20
166.24484252929687
 30
0.0
 10
283.66107177734375
 20
166.38435363769531
 30
0.0
 10
282.10333251953125
 20
166.56105041503906
 30
0.0
 10
280.55810546875
 20
166.77801513671875
 30
0.0
 10
279.02511596679687
 20
167.03224182128906
 30
0.0
 10
277.50460815429687
 20
167.32366943359375
 30
0.0
 10
275.99801635742187
 20
167.650634765625
 30
0.0
 10
274.50546264648437
 20
168.01490783691406
 30
0.0
 10
273.02679443359375
 20
168.41484069824219
 30
0.0
 10
271.56362915039062
 20
168.850341796875
 30
0.0
 10
270.1143798828125
 20
169.321533203125
 30
0.0
 10
268.6822509765625
 20
169.82524108886719
 30
0.0
 10
267.26712036132812
 20
170.3646240234375
 30
0.0
 10
265.86749267578125
 20
170.93504333496094
 30
0.0
 10
264.48495483398437
 20
171.54109191894531
 30
0.0
 10
264.27835083007812
 20
171.6375732421875
 30
0.0
 10
256.1917724609375
 20
166.96879577636719
 30
0.0
 10
257.8990478515625
 20
166.17137145996094
 30
0.0
  0
ENDSEC
  0
SECTION
  2
OBJECTS
  0
DICTIONARY
  5
C
100
AcDbDictionary
280
0
281
1
  3
ACAD_GROUP
350
D
  3
ACAD_LAYOUT
350
1A
  3
ACAD_MLINESTYLE
350
17
  3
ACAD_PLOTSETTINGS
350
19
  3
ACAD_PLOTSTYLENAME
350
E
  3
AcDbVariableDictionary
350
5D
  0
DICTIONARY
  5
D
100
AcDbDictionary
280
0
281
1
  0
ACDBDICTIONARYWDFLT
  5
E
100
AcDbDictionary
281
1
  3
Normal
350
F
100
AcDbDictionaryWithDefault
340
F
  0
ACDBPLACEHOLDER
  5
F
  0
DICTIONARY
  5
17
100
AcDbDictionary
280
0
281
1
  3
Standard
350
18
  0
MLINESTYLE
  5
18
100
AcDbMlineStyle
  2
STANDARD
 70
0
  3

 62
256
 51
90.0
 52
90.0
 71
2
 49
0.5
 62
256
  6
BYLAYER
 49
-0.5
 62
256
  6
BYLAYER
  0
DICTIONARY
  5
19
100
AcDbDictionary
280
0
281
1
  0
DICTIONARY
  5
1A
100
AcDbDictionary
281
1
  3
Layout1
350
1E
  3
Layout2
350
26
  3
Model
350
22
  0
LAYOUT
  5
1E
100
AcDbPlotSettings
  1

  2
none_device
  4

  6

 40
0.0
 41
0.0
 42
0.0
 43
0.0
 44
0.0
 45
0.0
 46
0.0
 47
0.0
 48
0.0
 49
0.0
140
0.0
141
0.0
142
1.0
143
1.0
 70
688
 72
0
 73
0
 74
5
  7

 75
16
147
1.0
148
0.0
149
0.0
100
AcDbLayout
  1
Layout1
 70
1
 71
1
 10
0.0
 20
0.0
 11
420.0
 21
297.0
 12
0.0
 22
0.0
 32
0.0
 14
100000000000000000000.0
 24
100000000000000000000.0
 34
100000000000000000000.0
 15
-100000000000000000000.0
 25
-100000000000000000000.0
 35
-100000000000000000000.0
146
0.0
 13
0.0
 23
0.0
 33
0.0
 16
1.0
 26
0.0
 36
0.0
 17
0.0
 27
1.0
 37
0.0
 76
0
330
1B
  0
LAYOUT
  5
22
100
AcDbPlotSettings
  1

  2
none_device
  4

  6

 40
0.0
 41
0.0
 42
0.0
 43
0.0
 44
0.0
 45
0.0
 46
0.0
 47
0.0
 48
0.0
 49
0.0
140
0.0
141
0.0
142
1.0
143
1.0
 70
1712
 72
0
 73
0
 74
0
  7

 75
0
147
1.0
148
0.0
149
0.0
100
AcDbLayout
  1
Model
 70
1
 71
0
 10
0.0
 20
0.0
 11
12.0
 21
9.0
 12
0.0
 22
0.0
 32
0.0
 14
0.0
 24
0.0
 34
0.0
 15
0.0
 25
0.0
 35
0.0
146
0.0
 13
0.0
 23
0.0
 33
0.0
 16
1.0
 26
0.0
 36
0.0
 17
0.0
 27
1.0
 37
0.0
 76
0
330
1F
  0
LAYOUT
  5
26
100
AcDbPlotSettings
  1

  2
none_device
  4

  6

 40
0.0
 41
0.0
 42
0.0
 43
0.0
 44
0.0
 45
0.0
 46
0.0
 47
0.0
 48
0.0
 49
0.0
140
0.0
141
0.0
142
1.0
143
1.0
 70
688
 72
0
 73
0
 74
5
  7

 75
16
147
1.0
148
0.0
149
0.0
100
AcDbLayout
  1
Layout2
 70
1
 71
2
 10
0.0
 20
0.0
 11
12.0
 21
9.0
 12
0.0
 22
0.0
 32
0.0
 14
0.0
 24
0.0
 34
0.0
 15
0.0
 25
0.0
 35
0.0
146
0.0
 13
0.0
 23
0.0
 33
0.0
 16
1.0
 26
0.0
 36
0.0
 17
0.0
 27
1.0
 37
0.0
 76
0
330
23
  0
DICTIONARY
  5
5D
100
AcDbDictionary
281
1
  3
DIMASSOC
350
5F
  3
HIDETEXT
350
5E
  0
DICTIONARYVAR
  5
5E
100
DictionaryVariables
280
0
  1
2
  0
DICTIONARYVAR
  5
5F
100
DictionaryVariables
280
0
  1
1
  0
ENDSEC
  0
EOF
