999
dxflib 3.17.0.0
  0
SECTION
  2
HEADER
  9
$ACADVER
  1
AC1015
  9
$HANDSEED
  5
FFFF
  9
$INSUNITS
 70
4
  9
$DIMEXE
 40
1.25
  9
$TEXTSTYLE
  7
Standard
  9
$LIMMIN
 10
0.0
 20
0.0
  0
ENDSEC
  0
SECTION
  2
TABLES
  0
TABLE
  2
VPORT
  5
8
100
AcDbSymbolTable
 70
1
  0
VPORT
  5
30
100
AcDbSymbolTableRecord
100
AcDbViewportTableRecord
  2
*Active
 70
0
 10
0.0
 20
0.0
 11
1.0
 21
1.0
 12
286.30555555555549
 22
148.5
 13
0.0
 23
0.0
 14
10.0
 24
10.0
 15
10.0
 25
10.0
 16
0.0
 26
0.0
 36
1.0
 17
0.0
 27
0.0
 37
0.0
 40
297.0
 41
1.92798353909465
 42
50.0
 43
0.0
 44
0.0
 50
0.0
 51
0.0
 71
0
 72
100
 73
1
 74
3
 75
1
 76
1
 77
0
 78
0
281
0
 65
1
110
0.0
120
0.0
130
0.0
111
1.0
121
0.0
131
0.0
112
0.0
122
1.0
132
0.0
 79
0
146
0.0
  0
ENDTAB
  0
TABLE
  2
LTYPE
  5
5
100
AcDbSymbolTable
 70
25
  0
LTYPE
  5
14
100
AcDbSymbolTableRecord
100
AcDbLinetypeTableRecord
  2
BYBLOCK
 70
0
  3

 72
65
 73
0
 40
0.0
  0
LTYPE
  5
15
100
AcDbSymbolTableRecord
100
AcDbLinetypeTableRecord
  2
BYLAYER
 70
0
  3

 72
65
 73
0
 40
0.0
  0
LTYPE
  5
16
100
AcDbSymbolTableRecord
100
AcDbLinetypeTableRecord
  2
CONTINUOUS
 70
0
  3
Solid line
 72
65
 73
0
 40
0.0
  0
LTYPE
  5
31
100
AcDbSymbolTableRecord
100
AcDbLinetypeTableRecord
  2
ACAD_ISO02W100
 70
0
  3

 72
65
 73
0
 40
0.0
  0
LTYPE
  5
32
100
AcDbSymbolTableRecord
100
AcDbLinetypeTableRecord
  2
ACAD_ISO03W100
 70
0
  3

 72
65
 73
0
 40
0.0
  0
LTYPE
  5
33
100
AcDbSymbolTableRecord
100
AcDbLinetypeTableRecord
  2
ACAD_ISO04W100
 70
0
  3

 72
65
 73
0
 40
0.0
  0
LTYPE
  5
34
100
AcDbSymbolTableRecord
100
AcDbLinetypeTableRecord
  2
ACAD_ISO05W100
 70
0
  3

 72
65
 73
0
 40
0.0
  0
LTYPE
  5
35
100
AcDbSymbolTableRecord
100
AcDbLinetypeTableRecord
  2
BORDER
 70
0
  3

 72
65
 73
0
 40
0.0
  0
LTYPE
  5
36
100
AcDbSymbolTableRecord
100
AcDbLinetypeTableRecord
  2
BORDER2
 70
0
  3

 72
65
 73
0
 40
0.0
  0
LTYPE
  5
37
100
AcDbSymbolTableRecord
100
AcDbLinetypeTableRecord
  2
BORDERX2
 70
0
  3

 72
65
 73
0
 40
0.0
  0
LTYPE
  5
38
100
AcDbSymbolTableRecord
100
AcDbLinetypeTableRecord
  2
CENTER
 70
0
  3

 72
65
 73
0
 40
0.0
  0
LTYPE
  5
39
100
AcDbSymbolTableRecord
100
AcDbLinetypeTableRecord
  2
CENTER2
 70
0
  3

 72
65
 73
0
 40
0.0
  0
LTYPE
  5
3A
100
AcDbSymbolTableRecord
100
AcDbLinetypeTableRecord
  2
CENTERX2
 70
0
  3

 72
65
 73
0
 40
0.0
  0
LTYPE
  5
3B
100
AcDbSymbolTableRecord
100
AcDbLinetypeTableRecord
  2
DASHDOT
 70
0
  3

 72
65
 73
0
 40
0.0
  0
LTYPE
  5
3C
100
AcDbSymbolTableRecord
100
AcDbLinetypeTableRecord
  2
DASHDOT2
 70
0
  3

 72
65
 73
0
 40
0.0
  0
LTYPE
  5
3D
100
AcDbSymbolTableRecord
100
AcDbLinetypeTableRecord
  2
DASHDOTX2
 70
0
  3

 72
65
 73
0
 40
0.0
  0
LTYPE
  5
3E
100
AcDbSymbolTableRecord
100
AcDbLinetypeTableRecord
  2
DASHED
 70
0
  3

 72
65
 73
0
 40
0.0
  0
LTYPE
  5
3F
100
AcDbSymbolTableRecord
100
AcDbLinetypeTableRecord
  2
DASHED2
 70
0
  3

 72
65
 73
0
 40
0.0
  0
LTYPE
  5
40
100
AcDbSymbolTableRecord
100
AcDbLinetypeTableRecord
  2
DASHEDX2
 70
0
  3

 72
65
 73
0
 40
0.0
  0
LTYPE
  5
41
100
AcDbSymbolTableRecord
100
AcDbLinetypeTableRecord
  2
DIVIDE
 70
0
  3

 72
65
 73
0
 40
0.0
  0
LTYPE
  5
42
100
AcDbSymbolTableRecord
100
AcDbLinetypeTableRecord
  2
DIVIDE2
 70
0
  3

 72
65
 73
0
 40
0.0
  0
LTYPE
  5
43
100
AcDbSymbolTableRecord
100
AcDbLinetypeTableRecord
  2
DIVIDEX2
 70
0
  3

 72
65
 73
0
 40
0.0
  0
LTYPE
  5
44
100
AcDbSymbolTableRecord
100
AcDbLinetypeTableRecord
  2
DOT
 70
0
  3

 72
65
 73
0
 40
0.0
  0
LTYPE
  5
45
100
AcDbSymbolTableRecord
100
AcDbLinetypeTableRecord
  2
DOT2
 70
0
  3

 72
65
 73
0
 40
0.0
  0
LTYPE
  5
46
100
AcDbSymbolTableRecord
100
AcDbLinetypeTableRecord
  2
DOTX2
 70
0
  3

 72
65
 73
0
 40
0.0
  0
ENDTAB
  0
TABLE
  2
LAYER
  5
2
100
AcDbSymbolTable
 70
1
  0
LAYER
  5
10
100
AcDbSymbolTableRecord
100
AcDbLayerTableRecord
  2
0
 70
0
 62
-1
420
0
  6
CONTINUOUS
370
1
390
F
  0
ENDTAB
  0
STYLE
  5
47
100
AcDbSymbolTableRecord
100
AcDbTextStyleTableRecord
  2

 70
0
 40
0.0
 41
0.0
 50
0.0
 71
0
 42
0.0
  3

  4

1001
ACAD
1000

1071
0
  0
TABLE
  2
VIEW
  5
6
100
AcDbSymbolTable
 70
0
  0
ENDTAB
  0
TABLE
  2
UCS
  5
7
100
AcDbSymbolTable
 70
0
  0
ENDTAB
  0
TABLE
  2
APPID
  5
9
100
AcDbSymbolTable
 70
1
  0
APPID
  5
12
100
AcDbSymbolTableRecord
100
AcDbRegAppTableRecord
  2
ACAD
 70
0
  0
ENDTAB
  0
TABLE
  2
DIMSTYLE
  5
A
100
AcDbSymbolTable
 70
1
100
AcDbDimStyleTable
 71
0
  0
DIMSTYLE
105
27
100
AcDbSymbolTableRecord
100
AcDbDimStyleTableRecord
  2
Standard
 41
1.0
 42
1.0
 43
3.75
 44
1.0
 70
0
 73
0
 74
0
 77
1
 78
8
140
1.0
141
2.5
143
0.03937007874016
147
1.0
171
3
172
1
271
2
272
2
274
3
278
44
283
0
284
8
340
20000000
  0
ENDTAB
  0
TABLE
  2
BLOCK_RECORD
  5
1
100
AcDbSymbolTable
 70
1
  0
BLOCK_RECORD
  5
1F
100
AcDbSymbolTableRecord
100
AcDbBlockTableRecord
  2
*Model_Space
340
22
  0
BLOCK_RECORD
  5
1B
100
AcDbSymbolTableRecord
100
AcDbBlockTableRecord
  2
*Paper_Space
340
1E
  0
BLOCK_RECORD
  5
23
100
AcDbSymbolTableRecord
100
AcDbBlockTableRecord
  2
*Paper_Space0
340
26
  0
BLOCK_RECORD
  5
48
100
AcDbSymbolTableRecord
100
AcDbBlockTableRecord
  2
myblock1
340
0
  0
BLOCK_RECORD
  5
49
100
AcDbSymbolTableRecord
100
AcDbBlockTableRecord
  2
myblock2
340
0
  0
ENDTAB
  0
ENDSEC
  0
SECTION
  2
BLOCKS
  0
BLOCK
  5
20
100
AcDbEntity
  8
0
100
AcDbBlockBegin
  2
*Model_Space
 70
0
 10
0.0
 20
0.0
 30
0.0
  3
*Model_Space
  1

  0
ENDBLK
  5
21
100
AcDbEntity
  8
0
100
AcDbBlockEnd
  0
BLOCK
  5
1C
100
AcDbEntity
 67
1
  8
0
100
AcDbBlockBegin
  2
*Paper_Space
 70
0
 10
0.0
 20
0.0
 30
0.0
  3
*Paper_Space
  1

  0
ENDBLK
  5
1D
100
AcDbEntity
 67
1
  8
0
100
AcDbBlockEnd
  0
BLOCK
  5
24
100
AcDbEntity
  8
0
100
AcDbBlockBegin
  2
*Paper_Space0
 70
0
 10
0.0
 20
0.0
 30
0.0
  3
*Paper_Space0
  1

  0
ENDBLK
  5
25
100
AcDbEntity
  8
0
100
AcDbBlockEnd
  0
BLOCK
  5
4A
100
AcDbEntity
  8
0
100
AcDbBlockBegin
  2
myblock1
 70
0
 10
0.0
 20
0.0
 30
0.0
  3
myblock1
  1

  0
ENDBLK
  5
4B
100
AcDbEntity
  8
0
100
AcDbBlockEnd
  0
BLOCK
  5
4C
100
AcDbEntity
  8
0
100
AcDbBlockBegin
  2
myblock2
 70
0
 10
0.0
 20
0.0
 30
0.0
  3
myblock2
  1

  0
ENDBLK
  5
4D
100
AcDbEntity
  8
0
100
AcDbBlockEnd
  0
ENDSEC
  0
SECTION
  2
ENTITIES
  0
LWPOLYLINE
  5
4E
100
AcDbEntity
  8
0
 62
-1
420
0
370
1
 48
1.0
  6
CONTINUOUS
100
AcDbPolyline
 90
129
 70
0
 10
200.00999450683594
 20
249.99998474121094
 30
0.0
 10
197.43748474121094
 20
249.93498229980469
 30
0.0
 10
194.89749145507812
 20
249.74249267578125
 30
0.0
 10
192.39498901367187
 20
249.42498779296875
 30
0.0
 10
189.9324951171875
 20
248.9849853515625
 30
0.0
 10
187.51498413085937
 20
248.42498779296875
 30
0.0
 10
185.13998413085937
 20
247.75248718261719
 30
0.0
 10
182.81748962402344
 20
246.96498107910156
 30
0.0
 10
180.5474853515625
 20
246.06999206542969
 30
0.0
 10
178.33248901367188
 20
245.06999206542969
 30
0.0
 10
176.177490234375
 20
243.96498107910156
 30
0.0
 10
174.08248901367188
 20
242.76248168945312
 30
0.0
 10
172.05499267578125
 20
241.45999145507812
 30
0.0
 10
170.09498596191406
 20
240.06748962402344
 30
0.0
 10
168.20498657226562
 20
238.58248901367187
 30
0.0
 10
166.38998413085937
 20
237.00999450683594
 30
0.0
 10
164.65498352050781
 20
235.35498046875
 30
0.0
 10
162.99998474121094
 20
233.61997985839844
 30
0.0
 10
161.427490234375
 20
231.80499267578125
 30
0.0
 10
159.94248962402344
 20
229.91499328613281
 30
0.0
 10
158.54998779296875
 20
227.95498657226562
 30
0.0
 10
157.24748229980469
 20
225.927490234375
 30
0.0
 10
156.04498291015625
 20
223.83248901367188
 30
0.0
 10
154.93998718261719
 20
221.677490234375
 30
0.0
 10
153.93998718261719
 20
219.46249389648437
 30
0.0
 10
153.04498291015625
 20
217.19248962402344
 30
0.0
 10
152.25749206542969
 20
214.8699951171875
 30
0.0
 10
151.58499145507812
 20
212.4949951171875
 30
0.0
 10
151.02499389648437
 20
210.07748413085937
 30
0.0
 10
150.58499145507812
 20
207.614990234375
 30
0.0
 10
150.26748657226562
 20
205.11248779296875
 30
0.0
 10
150.07498168945312
 20
202.57249450683594
 30
0.0
 10
150.00999450683594
 20
199.99998474121094
 30
0.0
 10
150.07498168945312
 20
197.427490234375
 30
0.0
 10
150.26748657226562
 20
194.88748168945312
 30
0.0
 10
150.58499145507812
 20
192.38499450683594
 30
0.0
 10
151.02499389648437
 20
189.9224853515625
 30
0.0
 10
151.58499145507812
 20
187.50498962402344
 30
0.0
 10
152.25749206542969
 20
185.12998962402344
 30
0.0
 10
153.04498291015625
 20
182.8074951171875
 30
0.0
 10
153.93998718261719
 20
180.53749084472656
 30
0.0
 10
154.93998718261719
 20
178.32249450683594
 30
0.0
 10
156.04498291015625
 20
176.16749572753906
 30
0.0
 10
157.24748229980469
 20
174.07249450683594
 30
0.0
 10
158.54998779296875
 20
172.04498291015625
 30
0.0
 10
159.94248962402344
 20
170.08499145507812
 30
0.0
 10
161.427490234375
 20
168.19499206542969
 30
0.0
 10
162.99998474121094
 20
166.37998962402344
 30
0.0
 10
164.65498352050781
 20
164.64498901367188
 30
0.0
 10
166.38998413085937
 20
162.989990234375
 30
0.0
 10
168.20498657226562
 20
161.41749572753906
 30
0.0
 10
170.09498596191406
 20
159.9324951171875
 30
0.0
 10
172.05499267578125
 20
158.53999328613281
 30
0.0
 10
174.08248901367188
 20
157.23748779296875
 30
0.0
 10
176.177490234375
 20
156.03498840332031
 30
0.0
 10
178.33248901367188
 20
154.92999267578125
 30
0.0
 10
180.5474853515625
 20
153.92999267578125
 30
0.0
 10
182.81748962402344
 20
153.03498840332031
 30
0.0
 10
185.13998413085937
 20
152.24748229980469
 30
0.0
 10
187.51498413085937
 20
151.57498168945312
 30
0.0
 10
189.9324951171875
 20
151.01498413085937
 30
0.0
 10
192.39498901367187
 20
150.57498168945312
 30
0.0
 10
194.89749145507812
 20
150.25749206542969
 30
0.0
 10
197.43748474121094
 20
150.06498718261719
 30
0.0
 10
200.00999450683594
 20
149.99998474121094
 30
0.0
 10
202.58248901367188
 20
150.06498718261719
 30
0.0
 10
205.12248229980469
 20
150.25749206542969
 30
0.0
 10
207.62498474121094
 20
150.57498168945312
 30
0.0
 10
210.08749389648437
 20
151.01498413085937
 30
0.0
 10
212.50498962402344
 20
151.57498168945312
 30
0.0
 10
214.87998962402344
 20
152.24748229980469
 30
0.0
 10
217.20248413085937
 20
153.03498840332031
 30
0.0
 10
219.47248840332031
 20
153.92999267578125
 30
0.0
 10
221.68748474121094
 20
154.92999267578125
 30
0.0
 10
223.84248352050781
 20
156.03498840332031
 30
0.0
 10
225.93748474121094
 20
157.23748779296875
 30
0.0
 10
227.96498107910156
 20
158.53999328613281
 30
0.0
 10
229.92498779296875
 20
159.9324951171875
 30
0.0
 10
231.81498718261719
 20
161.41749572753906
 30
0.0
 10
233.62998962402344
 20
162.989990234375
 30
0.0
 10
235.364990234375
 20
164.64498901367188
 30
0.0
 10
237.01998901367187
 20
166.37998962402344
 30
0.0
 10
238.59248352050781
 20
168.19499206542969
 30
0.0
 10
240.07748413085937
 20
170.08499145507812
 30
0.0
 10
241.46998596191406
 20
172.04498291015625
 30
0.0
 10
242.77249145507812
 20
174.07249450683594
 30
0.0
 10
243.97499084472656
 20
176.16749572753906
 30
0.0
 10
245.07998657226562
 20
178.32249450683594
 30
0.0
 10
246.07998657226562
 20
180.53749084472656
 30
0.0
 10
246.97499084472656
 20
182.8074951171875
 30
0.0
 10
247.76248168945313
 20
185.12998962402344
 30
0.0
 10
248.43498229980469
 20
187.50498962402344
 30
0.0
 10
248.99497985839844
 20
189.9224853515625
 30
0.0
 10
249.43498229980469
 20
192.38499450683594
 30
0.0
 10
249.75248718261719
 20
194.88748168945312
 30
0.0
 10
249.94499206542969
 20
197.427490234375
 30
0.0
 10
250.00997924804687
 20
199.99998474121094
 30
0.0
 10
249.94499206542969
 20
202.57249450683594
 30
0.0
 10
249.75248718261719
 20
205.11248779296875
 30
0.0
 10
249.43498229980469
 20
207.614990234375
 30
0.0
 10
248.99497985839844
 20
210.07748413085937
 30
0.0
 10
248.43498229980469
 20
212.4949951171875
 30
0.0
 10
247.76248168945313
 20
214.8699951171875
 30
0.0
 10
246.97499084472656
 20
217.19248962402344
 30
0.0
 10
246.07998657226562
 20
219.46249389648437
 30
0.0
 10
245.07998657226562
 20
221.677490234375
 30
0.0
 10
243.97499084472656
 20
223.83248901367188
 30
0.0
 10
242.77249145507812
 20
225.927490234375
 30
0.0
 10
241.46998596191406
 20
227.95498657226562
 30
0.0
 10
240.07748413085937
 20
229.91499328613281
 30
0.0
 10
238.59248352050781
 20
231.80499267578125
 30
0.0
 10
237.01998901367187
 20
233.61997985839844
 30
0.0
 10
235.364990234375
 20
235.35498046875
 30
0.0
 10
233.62998962402344
 20
237.00999450683594
 30
0.0
 10
231.81498718261719
 20
238.58248901367187
 30
0.0
 10
229.92498779296875
 20
240.06748962402344
 30
0.0
 10
227.96498107910156
 20
241.45999145507812
 30
0.0
 10
225.93748474121094
 20
242.76248168945312
 30
0.0
 10
223.84248352050781
 20
243.96498107910156
 30
0.0
 10
221.68748474121094
 20
245.06999206542969
 30
0.0
 10
219.47248840332031
 20
246.06999206542969
 30
0.0
 10
217.20248413085937
 20
246.96498107910156
 30
0.0
 10
214.87998962402344
 20
247.75248718261719
 30
0.0
 10
212.50498962402344
 20
248.42498779296875
 30
0.0
 10
210.08749389648437
 20
248.9849853515625
 30
0.0
 10
207.62498474121094
 20
249.42498779296875
 30
0.0
 10
205.12248229980469
 20
249.74249267578125
 30
0.0
 10
202.58248901367188
 20
249.93498229980469
 30
0.0
 10
200.00999450683594
 20
249.99998474121094
 30
0.0
  0
LWPOLYLINE
  5
4F
100
AcDbEntity
  8
0
 62
-1
420
0
370
1
 48
1.0
  6
CONTINUOUS
100
AcDbPolyline
 90
33
 70
0
 10
203.15748596191406
 20
206.14999389648437
 30
0.0
 10
202.97499084472656
 20
206.13249206542969
 30
0.0
 10
202.8074951171875
 20
206.07998657226562
 30
0.0
 10
202.65498352050781
 20
205.99748229980469
 30
0.0
 10
202.51998901367187
 20
205.88748168945312
 30
0.0
 10
202.40998840332031
 20
205.75248718261719
 30
0.0
 10
202.32748413085937
 20
205.59999084472656
 30
0.0
 10
202.27499389648437
 20
205.4324951171875
 30
0.0
 10
202.25749206542969
 20
205.24998474121094
 30
0.0
 10
202.27499389648437
 20
205.06999206542969
 30
0.0
 10
202.32748413085937
 20
204.89999389648437
 30
0.0
 10
202.40998840332031
 20
204.74748229980469
 30
0.0
 10
202.51998901367187
 20
204.614990234375
 30
0.0
 10
202.65498352050781
 20
204.50498962402344
 30
0.0
 10
202.8074951171875
 20
204.4224853515625
 30
0.0
 10
202.97499084472656
 20
204.3699951171875
 30
0.0
 10
203.15748596191406
 20
204.35249328613281
 30
0.0
 10
203.33998107910156
 20
204.3699951171875
 30
0.0
 10
203.50749206542969
 20
204.4224853515625
 30
0.0
 10
203.65998840332031
 20
204.50498962402344
 30
0.0
 10
203.79498291015625
 20
204.614990234375
 30
0.0
 10
203.90498352050781
 20
204.74748229980469
 30
0.0
 10
203.98748779296875
 20
204.89999389648437
 30
0.0
 10
204.03999328613281
 20
205.06999206542969
 30
0.0
 10
204.0574951171875
 20
205.24998474121094
 30
0.0
 10
204.03999328613281
 20
205.4324951171875
 30
0.0
 10
203.98748779296875
 20
205.59999084472656
 30
0.0
 10
203.90498352050781
 20
205.75248718261719
 30
0.0
 10
203.79498291015625
 20
205.88748168945312
 30
0.0
 10
203.65998840332031
 20
205.99748229980469
 30
0.0
 10
203.50749206542969
 20
206.07998657226562
 30
0.0
 10
203.33998107910156
 20
206.13249206542969
 30
0.0
 10
203.15748596191406
 20
206.14999389648437
 30
0.0
  0
LWPOLYLINE
  5
50
100
AcDbEntity
  8
0
 62
-1
420
0
370
1
 48
1.0
  6
CONTINUOUS
100
AcDbPolyline
 90
33
 70
0
 10
196.8599853515625
 20
206.14999389648437
 30
0.0
 10
196.677490234375
 20
206.13249206542969
 30
0.0
 10
196.50999450683594
 20
206.07998657226562
 30
0.0
 10
196.35748291015625
 20
205.99748229980469
 30
0.0
 10
196.22248840332031
 20
205.88748168945312
 30
0.0
 10
196.11248779296875
 20
205.75248718261719
 30
0.0
 10
196.02998352050781
 20
205.59999084472656
 30
0.0
 10
195.97749328613281
 20
205.4324951171875
 30
0.0
 10
195.95999145507812
 20
205.24998474121094
 30
0.0
 10
195.97749328613281
 20
205.06999206542969
 30
0.0
 10
196.02998352050781
 20
204.89999389648437
 30
0.0
 10
196.11248779296875
 20
204.74748229980469
 30
0.0
 10
196.22248840332031
 20
204.614990234375
 30
0.0
 10
196.35748291015625
 20
204.50498962402344
 30
0.0
 10
196.50999450683594
 20
204.4224853515625
 30
0.0
 10
196.677490234375
 20
204.3699951171875
 30
0.0
 10
196.8599853515625
 20
204.35249328613281
 30
0.0
 10
197.04248046875
 20
204.3699951171875
 30
0.0
 10
197.20999145507812
 20
204.4224853515625
 30
0.0
 10
197.36248779296875
 20
204.50498962402344
 30
0.0
 10
197.49748229980469
 20
204.614990234375
 30
0.0
 10
197.60748291015625
 20
204.74748229980469
 30
0.0
 10
197.68998718261719
 20
204.89999389648437
 30
0.0
 10
197.74249267578125
 20
205.06999206542969
 30
0.0
 10
197.75999450683594
 20
205.24998474121094
 30
0.0
 10
197.74249267578125
 20
205.4324951171875
 30
0.0
 10
197.68998718261719
 20
205.59999084472656
 30
0.0
 10
197.60748291015625
 20
205.75248718261719
 30
0.0
 10
197.49748229980469
 20
205.88748168945312
 30
0.0
 10
197.36248779296875
 20
205.99748229980469
 30
0.0
 10
197.20999145507812
 20
206.07998657226562
 30
0.0
 10
197.04248046875
 20
206.13249206542969
 30
0.0
 10
196.8599853515625
 20
206.14999389648437
 30
0.0
  0
LWPOLYLINE
  5
51
100
AcDbEntity
  8
0
 62
-1
420
0
370
1
 48
1.0
  6
CONTINUOUS
100
AcDbPolyline
 90
33
 70
0
 10
203.15998840332031
 20
195.64749145507812
 30
0.0
 10
202.97749328613281
 20
195.62998962402344
 30
0.0
 10
202.80998229980469
 20
195.57748413085937
 30
0.0
 10
202.65748596191406
 20
195.4949951171875
 30
0.0
 10
202.52249145507812
 20
195.38499450683594
 30
0.0
 10
202.41249084472656
 20
195.25248718261719
 30
0.0
 10
202.32998657226562
 20
195.09999084472656
 30
0.0
 10
202.27748107910156
 20
194.92999267578125
 30
0.0
 10
202.25999450683594
 20
194.74998474121094
 30
0.0
 10
202.27748107910156
 20
194.56748962402344
 30
0.0
 10
202.32998657226562
 20
194.39999389648437
 30
0.0
 10
202.41249084472656
 20
194.24748229980469
 30
0.0
 10
202.52249145507812
 20
194.11248779296875
 30
0.0
 10
202.65748596191406
 20
194.00248718261719
 30
0.0
 10
202.80998229980469
 20
193.91998291015625
 30
0.0
 10
202.97749328613281
 20
193.86749267578125
 30
0.0
 10
203.15998840332031
 20
193.84999084472656
 30
0.0
 10
203.34248352050781
 20
193.86749267578125
 30
0.0
 10
203.50999450683594
 20
193.91998291015625
 30
0.0
 10
203.66499328613281
 20
194.00248718261719
 30
0.0
 10
203.7974853515625
 20
194.11248779296875
 30
0.0
 10
203.90748596191406
 20
194.24748229980469
 30
0.0
 10
203.99249267578125
 20
194.39999389648437
 30
0.0
 10
204.04498291015625
 20
194.56748962402344
 30
0.0
 10
204.06248474121094
 20
194.74998474121094
 30
0.0
 10
204.04498291015625
 20
194.92999267578125
 30
0.0
 10
203.99249267578125
 20
195.09999084472656
 30
0.0
 10
203.90748596191406
 20
195.25248718261719
 30
0.0
 10
203.7974853515625
 20
195.38499450683594
 30
0.0
 10
203.66499328613281
 20
195.4949951171875
 30
0.0
 10
203.50999450683594
 20
195.57748413085937
 30
0.0
 10
203.34248352050781
 20
195.62998962402344
 30
0.0
 10
203.15998840332031
 20
195.64749145507812
 30
0.0
  0
LWPOLYLINE
  5
52
100
AcDbEntity
  8
0
 62
-1
420
0
370
1
 48
1.0
  6
CONTINUOUS
100
AcDbPolyline
 90
33
 70
0
 10
196.86248779296875
 20
195.64999389648437
 30
0.0
 10
196.67999267578125
 20
195.63249206542969
 30
0.0
 10
196.51248168945313
 20
195.57998657226562
 30
0.0
 10
196.3599853515625
 20
195.49748229980469
 30
0.0
 10
196.22499084472656
 20
195.38748168945312
 30
0.0
 10
196.114990234375
 20
195.25498962402344
 30
0.0
 10
196.03248596191406
 20
195.10249328613281
 30
0.0
 10
195.97998046875
 20
194.9324951171875
 30
0.0
 10
195.96249389648437
 20
194.75248718261719
 30
0.0
 10
195.97998046875
 20
194.56999206542969
 30
0.0
 10
196.03248596191406
 20
194.40248107910156
 30
0.0
 10
196.114990234375
 20
194.24998474121094
 30
0.0
 10
196.22499084472656
 20
194.114990234375
 30
0.0
 10
196.3599853515625
 20
194.00498962402344
 30
0.0
 10
196.51248168945313
 20
193.9224853515625
 30
0.0
 10
196.67999267578125
 20
193.8699951171875
 30
0.0
 10
196.86248779296875
 20
193.85249328613281
 30
0.0
 10
197.04498291015625
 20
193.8699951171875
 30
0.0
 10
197.21249389648437
 20
193.9224853515625
 30
0.0
 10
197.364990234375
 20
194.00498962402344
 30
0.0
 10
197.49998474121094
 20
194.114990234375
 30
0.0
 10
197.6099853515625
 20
194.24998474121094
 30
0.0
 10
197.69248962402344
 20
194.40248107910156
 30
0.0
 10
197.7449951171875
 20
194.56999206542969
 30
0.0
 10
197.76248168945312
 20
194.75248718261719
 30
0.0
 10
197.7449951171875
 20
194.9324951171875
 30
0.0
 10
197.69248962402344
 20
195.10249328613281
 30
0.0
 10
197.6099853515625
 20
195.25498962402344
 30
0.0
 10
197.49998474121094
 20
195.38748168945312
 30
0.0
 10
197.364990234375
 20
195.49748229980469
 30
0.0
 10
197.21249389648437
 20
195.57998657226562
 30
0.0
 10
197.04498291015625
 20
195.63249206542969
 30
0.0
 10
196.86248779296875
 20
195.64999389648437
 30
0.0
  0
LWPOLYLINE
  5
53
100
AcDbEntity
  8
0
 62
-1
420
0
370
1
 48
1.0
  6
CONTINUOUS
100
AcDbPolyline
 90
65
 70
0
 10
200.01248168945312
 20
203.49998474121094
 30
0.0
 10
199.65498352050781
 20
203.48248291015625
 30
0.0
 10
199.3074951171875
 20
203.42999267578125
 30
0.0
 10
198.96998596191406
 20
203.34248352050781
 30
0.0
 10
198.64999389648437
 20
203.22499084472656
 30
0.0
 10
198.34248352050781
 20
203.07748413085937
 30
0.0
 10
198.05499267578125
 20
202.90248107910156
 30
0.0
 10
197.78498840332031
 20
202.69998168945312
 30
0.0
 10
197.53498840332031
 20
202.47499084472656
 30
0.0
 10
197.30998229980469
 20
202.22499084472656
 30
0.0
 10
197.10748291015625
 20
201.95748901367187
 30
0.0
 10
196.9324951171875
 20
201.66748046875
 30
0.0
 10
196.78498840332031
 20
201.36248779296875
 30
0.0
 10
196.66748046875
 20
201.03999328613281
 30
0.0
 10
196.57998657226562
 20
200.70498657226562
 30
0.0
 10
196.52748107910156
 20
200.35748291015625
 30
0.0
 10
196.50999450683594
 20
199.99998474121094
 30
0.0
 10
196.52748107910156
 20
199.64248657226562
 30
0.0
 10
196.57998657226562
 20
199.29498291015625
 30
0.0
 10
196.66748046875
 20
198.95999145507812
 30
0.0
 10
196.78498840332031
 20
198.63748168945312
 30
0.0
 10
196.9324951171875
 20
198.33248901367188
 30
0.0
 10
197.10748291015625
 20
198.04248046875
 30
0.0
 10
197.30998229980469
 20
197.77499389648437
 30
0.0
 10
197.53498840332031
 20
197.52499389648437
 30
0.0
 10
197.78498840332031
 20
197.29998779296875
 30
0.0
 10
198.05499267578125
 20
197.09748840332031
 30
0.0
 10
198.34248352050781
 20
196.9224853515625
 30
0.0
 10
198.64999389648437
 20
196.77499389648437
 30
0.0
 10
198.96998596191406
 20
196.65748596191406
 30
0.0
 10
199.3074951171875
 20
196.56999206542969
 30
0.0
 10
199.65498352050781
 20
196.51748657226562
 30
0.0
 10
200.01248168945312
 20
196.49998474121094
 30
0.0
 10
200.3699951171875
 20
196.51748657226562
 30
0.0
 10
200.71748352050781
 20
196.56999206542969
 30
0.0
 10
201.052490234375
 20
196.65748596191406
 30
0.0
 10
201.37498474121094
 20
196.77499389648437
 30
0.0
 10
201.67999267578125
 20
196.9224853515625
 30
0.0
 10
201.96998596191406
 20
197.09748840332031
 30
0.0
 10
202.23748779296875
 20
197.29998779296875
 30
0.0
 10
202.48748779296875
 20
197.52499389648437
 30
0.0
 10
202.71249389648437
 20
197.77499389648437
 30
0.0
 10
202.91499328613281
 20
198.04248046875
 30
0.0
 10
203.08998107910156
 20
198.33248901367188
 30
0.0
 10
203.23748779296875
 20
198.63748168945312
 30
0.0
 10
203.35498046875
 20
198.95999145507812
 30
0.0
 10
203.44248962402344
 20
199.29498291015625
 30
0.0
 10
203.4949951171875
 20
199.64248657226562
 30
0.0
 10
203.51248168945312
 20
199.99998474121094
 30
0.0
 10
203.4949951171875
 20
200.35748291015625
 30
0.0
 10
203.44248962402344
 20
200.70498657226562
 30
0.0
 10
203.35498046875
 20
201.03999328613281
 30
0.0
 10
203.23748779296875
 20
201.36248779296875
 30
0.0
 10
203.08998107910156
 20
201.66748046875
 30
0.0
 10
202.91499328613281
 20
201.95748901367187
 30
0.0
 10
202.71249389648437
 20
202.22499084472656
 30
0.0
 10
202.48748779296875
 20
202.47499084472656
 30
0.0
 10
202.23748779296875
 20
202.69998168945312
 30
0.0
 10
201.96998596191406
 20
202.90248107910156
 30
0.0
 10
201.67999267578125
 20
203.07748413085937
 30
0.0
 10
201.37498474121094
 20
203.22499084472656
 30
0.0
 10
201.052490234375
 20
203.34248352050781
 30
0.0
 10
200.71748352050781
 20
203.42999267578125
 30
0.0
 10
200.3699951171875
 20
203.48248291015625
 30
0.0
 10
200.01248168945312
 20
203.49998474121094
 30
0.0
  0
LWPOLYLINE
  5
54
100
AcDbEntity
  8
0
 62
-1
420
0
370
1
 48
1.0
  6
CONTINUOUS
100
AcDbPolyline
 90
49
 70
0
 10
198.25999450683594
 20
243.24998474121094
 30
0.0
 10
198.26998901367187
 20
243.07249450683594
 30
0.0
 10
198.29498291015625
 20
242.89749145507812
 30
0.0
 10
198.33749389648437
 20
242.72998046875
 30
0.0
 10
198.39749145507812
 20
242.56999206542969
 30
0.0
 10
198.5574951171875
 20
242.27249145507812
 30
0.0
 10
198.77249145507812
 20
242.01248168945313
 30
0.0
 10
199.02998352050781
 20
241.79998779296875
 30
0.0
 10
199.32748413085937
 20
241.63748168945312
 30
0.0
 10
199.489990234375
 20
241.57998657226562
 30
0.0
 10
199.65748596191406
 20
241.53498840332031
 30
0.0
 10
199.82998657226562
 20
241.50999450683594
 30
0.0
 10
200.00999450683594
 20
241.49998474121094
 30
0.0
 10
200.18748474121094
 20
241.50999450683594
 30
0.0
 10
200.36248779296875
 20
241.53498840332031
 30
0.0
 10
200.52998352050781
 20
241.57998657226562
 30
0.0
 10
200.68998718261719
 20
241.63748168945312
 30
0.0
 10
200.98748779296875
 20
241.79998779296875
 30
0.0
 10
201.24748229980469
 20
242.01248168945313
 30
0.0
 10
201.45999145507812
 20
242.27249145507812
 30
0.0
 10
201.62248229980469
 20
242.56999206542969
 30
0.0
 10
201.67999267578125
 20
242.72998046875
 30
0.0
 10
201.72499084472656
 20
242.89749145507812
 30
0.0
 10
201.74998474121094
 20
243.07249450683594
 30
0.0
 10
201.75999450683594
 20
243.24998474121094
 30
0.0
 10
201.74998474121094
 20
243.42999267578125
 30
0.0
 10
201.72499084472656
 20
243.60249328613281
 30
0.0
 10
201.67999267578125
 20
243.76998901367187
 30
0.0
 10
201.62248229980469
 20
243.93247985839844
 30
0.0
 10
201.45999145507812
 20
244.22998046875
 30
0.0
 10
201.24748229980469
 20
244.48748779296875
 30
0.0
 10
200.98748779296875
 20
244.70248413085937
 30
0.0
 10
200.68998718261719
 20
244.86248779296875
 30
0.0
 10
200.52998352050781
 20
244.9224853515625
 30
0.0
 10
200.36248779296875
 20
244.96498107910156
 30
0.0
 10
200.18748474121094
 20
244.989990234375
 30
0.0
 10
200.00999450683594
 20
244.99998474121094
 30
0.0
 10
199.82998657226562
 20
244.989990234375
 30
0.0
 10
199.65748596191406
 20
244.96498107910156
 30
0.0
 10
199.489990234375
 20
244.9224853515625
 30
0.0
 10
199.32748413085937
 20
244.86248779296875
 30
0.0
 10
199.02998352050781
 20
244.70248413085937
 30
0.0
 10
198.77249145507812
 20
244.48748779296875
 30
0.0
 10
198.5574951171875
 20
244.22998046875
 30
0.0
 10
198.39749145507812
 20
243.93247985839844
 30
0.0
 10
198.33749389648437
 20
243.76998901367187
 30
0.0
 10
198.29498291015625
 20
243.60249328613281
 30
0.0
 10
198.26998901367187
 20
243.42999267578125
 30
0.0
 10
198.25999450683594
 20
243.24998474121094
 30
0.0
  0
LWPOLYLINE
  5
55
100
AcDbEntity
  8
0
 62
-1
420
0
370
1
 48
1.0
  6
CONTINUOUS
100
AcDbPolyline
 90
53
 70
0
 10
176.864990234375
 20
236.57998657226562
 30
0.0
 10
177.07249450683594
 20
236.29248046875
 30
0.0
 10
177.32498168945313
 20
236.05998229980469
 30
0.0
 10
177.614990234375
 20
235.88249206542969
 30
0.0
 10
177.76998901367188
 20
235.81748962402344
 30
0.0
 10
177.92999267578125
 20
235.76498413085937
 30
0.0
 10
178.09248352050781
 20
235.72998046875
 30
0.0
 10
178.25999450683594
 20
235.70999145507812
 30
0.0
 10
178.42999267578125
 20
235.70748901367187
 30
0.0
 10
178.59748840332031
 20
235.71998596191406
 30
0.0
 10
178.76748657226562
 20
235.74748229980469
 30
0.0
 10
178.93498229980469
 20
235.79498291015625
 30
0.0
 10
179.09748840332031
 20
235.85748291015625
 30
0.0
 10
179.25749206542969
 20
235.93998718261719
 30
0.0
 10
179.54498291015625
 20
236.14749145507812
 30
0.0
 10
179.77748107910156
 20
236.39999389648437
 30
0.0
 10
179.95498657226562
 20
236.68998718261719
 30
0.0
 10
180.02249145507812
 20
236.84498596191406
 30
0.0
 10
180.07249450683594
 20
237.00498962402344
 30
0.0
 10
180.10748291015625
 20
237.16748046875
 30
0.0
 10
180.12748718261719
 20
237.33499145507812
 30
0.0
 10
180.13249206542969
 20
237.50498962402344
 30
0.0
 10
180.1199951171875
 20
237.6724853515625
 30
0.0
 10
180.08998107910156
 20
237.84248352050781
 30
0.0
 10
180.04249572753906
 20
238.00999450683594
 30
0.0
 10
179.97999572753906
 20
238.1724853515625
 30
0.0
 10
179.89749145507812
 20
238.33248901367187
 30
0.0
 10
179.68998718261719
 20
238.61997985839844
 30
0.0
 10
179.43748474121094
 20
238.85249328613281
 30
0.0
 10
179.14999389648437
 20
239.02998352050781
 30
0.0
 10
178.9949951171875
 20
239.09498596191406
 30
0.0
 10
178.83499145507812
 20
239.14749145507812
 30
0.0
 10
178.66998291015625
 20
239.18247985839844
 30
0.0
 10
178.50248718261719
 20
239.20248413085937
 30
0.0
 10
178.33499145507812
 20
239.20498657226562
 30
0.0
 10
178.16499328613281
 20
239.19248962402344
 30
0.0
 10
177.99748229980469
 20
239.16499328613281
 30
0.0
 10
177.82998657226562
 20
239.11749267578125
 30
0.0
 10
177.66749572753906
 20
239.05499267578125
 30
0.0
 10
177.50749206542969
 20
238.97248840332031
 30
0.0
 10
177.21998596191406
 20
238.76498413085937
 30
0.0
 10
176.9849853515625
 20
238.51248168945312
 30
0.0
 10
176.80998229980469
 20
238.22248840332031
 30
0.0
 10
176.74249267578125
 20
238.06748962402344
 30
0.0
 10
176.69248962402344
 20
237.90748596191406
 30
0.0
 10
176.65498352050781
 20
237.74497985839844
 30
0.0
 10
176.63499450683594
 20
237.57748413085937
 30
0.0
 10
176.63249206542969
 20
237.40748596191406
 30
0.0
 10
176.64498901367187
 20
237.239990234375
 30
0.0
 10
176.6724853515625
 20
237.06999206542969
 30
0.0
 10
176.71998596191406
 20
236.90248107910156
 30
0.0
 10
176.78248596191406
 20
236.739990234375
 30
0.0
 10
176.864990234375
 20
236.57998657226562
 30
0.0
  0
LWPOLYLINE
  5
56
100
AcDbEntity
  8
0
 62
-1
420
0
370
1
 48
1.0
  6
CONTINUOUS
100
AcDbPolyline
 90
53
 70
0
 10
161.67498779296875
 20
220.10748291015625
 30
0.0
 10
161.83499145507812
 20
220.02499389648437
 30
0.0
 10
161.99748229980469
 20
219.96249389648437
 30
0.0
 10
162.16499328613281
 20
219.91499328613281
 30
0.0
 10
162.33499145507812
 20
219.88499450683594
 30
0.0
 10
162.50248718261719
 20
219.87248229980469
 30
0.0
 10
162.6724853515625
 20
219.87748718261719
 30
0.0
 10
162.83999633789062
 20
219.89749145507812
 30
0.0
 10
163.00248718261719
 20
219.93247985839844
 30
0.0
 10
163.16249084472656
 20
219.98248291015625
 30
0.0
 10
163.31748962402344
 20
220.04998779296875
 30
0.0
 10
163.60748291015625
 20
220.22749328613281
 30
0.0
 10
163.8599853515625
 20
220.45999145507812
 30
0.0
 10
164.06748962402344
 20
220.74748229980469
 30
0.0
 10
164.14999389648437
 20
220.90748596191406
 30
0.0
 10
164.21249389648437
 20
221.06999206542969
 30
0.0
 10
164.25999450683594
 20
221.23748779296875
 30
0.0
 10
164.28749084472656
 20
221.40748596191406
 30
0.0
 10
164.29998779296875
 20
221.57498168945312
 30
0.0
 10
164.2974853515625
 20
221.74497985839844
 30
0.0
 10
164.27748107910156
 20
221.91249084472656
 30
0.0
 10
164.24249267578125
 20
222.07498168945312
 30
0.0
 10
164.18998718261719
 20
222.2349853515625
 30
0.0
 10
164.12248229980469
 20
222.38998413085937
 30
0.0
 10
163.94749450683594
 20
222.67999267578125
 30
0.0
 10
163.71249389648437
 20
222.93247985839844
 30
0.0
 10
163.42498779296875
 20
223.13998413085937
 30
0.0
 10
163.26498413085937
 20
223.22248840332031
 30
0.0
 10
163.10249328613281
 20
223.28498840332031
 30
0.0
 10
162.93498229980469
 20
223.33248901367187
 30
0.0
 10
162.76748657226562
 20
223.3599853515625
 30
0.0
 10
162.59748840332031
 20
223.37248229980469
 30
0.0
 10
162.42999267578125
 20
223.36997985839844
 30
0.0
 10
162.26248168945312
 20
223.34999084472656
 30
0.0
 10
162.09748840332031
 20
223.31498718261719
 30
0.0
 10
161.93748474121094
 20
223.26248168945312
 30
0.0
 10
161.78248596191406
 20
223.19499206542969
 30
0.0
 10
161.4949951171875
 20
223.01998901367188
 30
0.0
 10
161.24249267578125
 20
222.78498840332031
 30
0.0
 10
161.03498840332031
 20
222.49748229980469
 30
0.0
 10
160.95248413085937
 20
222.33749389648437
 30
0.0
 10
160.88998413085937
 20
222.17498779296875
 30
0.0
 10
160.84248352050781
 20
222.00749206542969
 30
0.0
 10
160.81498718261719
 20
221.83749389648437
 30
0.0
 10
160.802490234375
 20
221.66998291015625
 30
0.0
 10
160.80499267578125
 20
221.49998474121094
 30
0.0
 10
160.82498168945312
 20
221.33248901367187
 30
0.0
 10
160.8599853515625
 20
221.16998291015625
 30
0.0
 10
160.91249084472656
 20
221.00999450683594
 30
0.0
 10
160.97749328613281
 20
220.85498046875
 30
0.0
 10
161.15498352050781
 20
220.56748962402344
 30
0.0
 10
161.38748168945312
 20
220.31498718261719
 30
0.0
 10
161.67498779296875
 20
220.10748291015625
 30
0.0
  0
LWPOLYLINE
  5
57
100
AcDbEntity
  8
0
 62
-1
420
0
370
1
 48
1.0
  6
CONTINUOUS
100
AcDbPolyline
 90
49
 70
0
 10
156.75749206542969
 20
198.2449951171875
 30
0.0
 10
156.93748474121094
 20
198.25498962402344
 30
0.0
 10
157.1099853515625
 20
198.27998352050781
 30
0.0
 10
157.27749633789063
 20
198.32498168945312
 30
0.0
 10
157.43998718261719
 20
198.38249206542969
 30
0.0
 10
157.73748779296875
 20
198.54498291015625
 30
0.0
 10
157.9949951171875
 20
198.75749206542969
 30
0.0
 10
158.20999145507812
 20
199.01748657226562
 30
0.0
 10
158.3699951171875
 20
199.31498718261719
 30
0.0
 10
158.42999267578125
 20
199.47499084472656
 30
0.0
 10
158.47248840332031
 20
199.64248657226562
 30
0.0
 10
158.49748229980469
 20
199.81748962402344
 30
0.0
 10
158.50749206542969
 20
199.9949951171875
 30
0.0
 10
158.49748229980469
 20
200.17498779296875
 30
0.0
 10
158.47248840332031
 20
200.34748840332031
 30
0.0
 10
158.42999267578125
 20
200.51498413085937
 30
0.0
 10
158.3699951171875
 20
200.677490234375
 30
0.0
 10
158.20999145507812
 20
200.97499084472656
 30
0.0
 10
157.9949951171875
 20
201.23248291015625
 30
0.0
 10
157.73748779296875
 20
201.44749450683594
 30
0.0
 10
157.43998718261719
 20
201.60748291015625
 30
0.0
 10
157.27749633789063
 20
201.66748046875
 30
0.0
 10
157.1099853515625
 20
201.70999145507812
 30
0.0
 10
156.93748474121094
 20
201.7349853515625
 30
0.0
 10
156.75749206542969
 20
201.7449951171875
 30
0.0
 10
156.57998657226562
 20
201.7349853515625
 30
0.0
 10
156.40498352050781
 20
201.70999145507812
 30
0.0
 10
156.23748779296875
 20
201.66748046875
 30
0.0
 10
156.07748413085937
 20
201.60748291015625
 30
0.0
 10
155.77998352050781
 20
201.44749450683594
 30
0.0
 10
155.51998901367187
 20
201.23248291015625
 30
0.0
 10
155.3074951171875
 20
200.97499084472656
 30
0.0
 10
155.14498901367187
 20
200.677490234375
 30
0.0
 10
155.08749389648437
 20
200.51498413085937
 30
0.0
 10
155.04249572753906
 20
200.34748840332031
 30
0.0
 10
155.01748657226562
 20
200.17498779296875
 30
0.0
 10
155.00749206542969
 20
199.9949951171875
 30
0.0
 10
155.01748657226562
 20
199.81748962402344
 30
0.0
 10
155.04249572753906
 20
199.64248657226562
 30
0.0
 10
155.08749389648437
 20
199.47499084472656
 30
0.0
 10
155.14498901367187
 20
199.31498718261719
 30
0.0
 10
155.3074951171875
 20
199.01748657226562
 30
0.0
 10
155.51998901367187
 20
198.75749206542969
 30
0.0
 10
155.77998352050781
 20
198.54498291015625
 30
0.0
 10
156.07748413085937
 20
198.38249206542969
 30
0.0
 10
156.23748779296875
 20
198.32498168945312
 30
0.0
 10
156.40498352050781
 20
198.27998352050781
 30
0.0
 10
156.57998657226562
 20
198.25498962402344
 30
0.0
 10
156.75749206542969
 20
198.2449951171875
 30
0.0
  0
LWPOLYLINE
  5
58
100
AcDbEntity
  8
0
 62
-1
420
0
370
1
 48
1.0
  6
CONTINUOUS
100
AcDbPolyline
 90
53
 70
0
 10
163.42999267578125
 20
176.85499572753906
 30
0.0
 10
163.71748352050781
 20
177.06248474121094
 30
0.0
 10
163.95248413085937
 20
177.31498718261719
 30
0.0
 10
164.12748718261719
 20
177.60249328613281
 30
0.0
 10
164.19499206542969
 20
177.75749206542969
 30
0.0
 10
164.24748229980469
 20
177.91749572753906
 30
0.0
 10
164.28248596191406
 20
178.07998657226562
 30
0.0
 10
164.302490234375
 20
178.24748229980469
 30
0.0
 10
164.30499267578125
 20
178.41749572753906
 30
0.0
 10
164.29249572753906
 20
178.58499145507812
 30
0.0
 10
164.26498413085937
 20
178.75498962402344
 30
0.0
 10
164.21748352050781
 20
178.9224853515625
 30
0.0
 10
164.15498352050781
 20
179.08499145507812
 30
0.0
 10
164.07249450683594
 20
179.2449951171875
 30
0.0
 10
163.864990234375
 20
179.53248596191406
 30
0.0
 10
163.61248779296875
 20
179.76498413085937
 30
0.0
 10
163.32249450683594
 20
179.94248962402344
 30
0.0
 10
163.16749572753906
 20
180.00999450683594
 30
0.0
 10
163.00749206542969
 20
180.05998229980469
 30
0.0
 10
162.84498596191406
 20
180.09498596191406
 30
0.0
 10
162.677490234375
 20
180.114990234375
 30
0.0
 10
162.50749206542969
 20
180.1199951171875
 30
0.0
 10
162.33999633789063
 20
180.10748291015625
 30
0.0
 10
162.16998291015625
 20
180.07748413085937
 30
0.0
 10
162.00248718261719
 20
180.02998352050781
 30
0.0
 10
161.83999633789062
 20
179.96748352050781
 30
0.0
 10
161.67999267578125
 20
179.88499450683594
 30
0.0
 10
161.39248657226562
 20
179.677490234375
 30
0.0
 10
161.15998840332031
 20
179.42498779296875
 30
0.0
 10
160.98248291015625
 20
179.13748168945312
 30
0.0
 10
160.91499328613281
 20
178.98248291015625
 30
0.0
 10
160.864990234375
 20
178.82249450683594
 30
0.0
 10
160.82998657226562
 20
178.65998840332031
 30
0.0
 10
160.80998229980469
 20
178.49249267578125
 30
0.0
 10
160.80499267578125
 20
178.32249450683594
 30
0.0
 10
160.81748962402344
 20
178.15498352050781
 30
0.0
 10
160.84748840332031
 20
177.9849853515625
 30
0.0
 10
160.89498901367187
 20
177.81748962402344
 30
0.0
 10
160.95748901367187
 20
177.65498352050781
 30
0.0
 10
161.03999328613281
 20
177.4949951171875
 30
0.0
 10
161.24748229980469
 20
177.20748901367187
 30
0.0
 10
161.49998474121094
 20
176.97248840332031
 30
0.0
 10
161.78749084472656
 20
176.7974853515625
 30
0.0
 10
161.94248962402344
 20
176.72999572753906
 30
0.0
 10
162.10249328613281
 20
176.67999267578125
 30
0.0
 10
162.26498413085937
 20
176.64248657226562
 30
0.0
 10
162.4324951171875
 20
176.62248229980469
 30
0.0
 10
162.60249328613281
 20
176.6199951171875
 30
0.0
 10
162.76998901367187
 20
176.63249206542969
 30
0.0
 10
162.93998718261719
 20
176.66249084472656
 30
0.0
 10
163.10748291015625
 20
176.70999145507812
 30
0.0
 10
163.26998901367188
 20
176.77249145507812
 30
0.0
 10
163.42999267578125
 20
176.85499572753906
 30
0.0
  0
LWPOLYLINE
  5
59
100
AcDbEntity
  8
0
 62
-1
420
0
370
1
 48
1.0
  6
CONTINUOUS
100
AcDbPolyline
 90
53
 70
0
 10
179.90498352050781
 20
161.66499328613281
 30
0.0
 10
179.98748779296875
 20
161.82498168945313
 30
0.0
 10
180.04998779296875
 20
161.98748779296875
 30
0.0
 10
180.09748840332031
 20
162.15498352050781
 30
0.0
 10
180.12748718261719
 20
162.32498168945312
 30
0.0
 10
180.13998413085937
 20
162.49249267578125
 30
0.0
 10
180.13499450683594
 20
162.66249084472656
 30
0.0
 10
180.114990234375
 20
162.82998657226562
 30
0.0
 10
180.07998657226562
 20
162.99249267578125
 30
0.0
 10
180.02998352050781
 20
163.15249633789063
 30
0.0
 10
179.96249389648437
 20
163.3074951171875
 30
0.0
 10
179.78498840332031
 20
163.59498596191406
 30
0.0
 10
179.552490234375
 20
163.84748840332031
 30
0.0
 10
179.26498413085937
 20
164.05499267578125
 30
0.0
 10
179.10499572753906
 20
164.13748168945312
 30
0.0
 10
178.94248962402344
 20
164.19998168945312
 30
0.0
 10
178.77499389648437
 20
164.24748229980469
 30
0.0
 10
178.60499572753906
 20
164.27748107910156
 30
0.0
 10
178.43748474121094
 20
164.28999328613281
 30
0.0
 10
178.26748657226562
 20
164.28749084472656
 30
0.0
 10
178.09999084472656
 20
164.26748657226562
 30
0.0
 10
177.93748474121094
 20
164.22999572753906
 30
0.0
 10
177.77748107910156
 20
164.17999267578125
 30
0.0
 10
177.62248229980469
 20
164.11248779296875
 30
0.0
 10
177.33248901367187
 20
163.93748474121094
 30
0.0
 10
177.07998657226562
 20
163.70248413085937
 30
0.0
 10
176.87248229980469
 20
163.41499328613281
 30
0.0
 10
176.78999328613281
 20
163.25498962402344
 30
0.0
 10
176.72749328613281
 20
163.09248352050781
 30
0.0
 10
176.67999267578125
 20
162.92498779296875
 30
0.0
 10
176.65248107910156
 20
162.75498962402344
 30
0.0
 10
176.63998413085937
 20
162.58749389648438
 30
0.0
 10
176.64248657226562
 20
162.41749572753906
 30
0.0
 10
176.66249084472656
 20
162.24998474121094
 30
0.0
 10
176.69998168945312
 20
162.08749389648437
 30
0.0
 10
176.74998474121094
 20
161.927490234375
 30
0.0
 10
176.81748962402344
 20
161.77249145507812
 30
0.0
 10
176.99249267578125
 20
161.4849853515625
 30
0.0
 10
177.22749328613281
 20
161.23248291015625
 30
0.0
 10
177.51498413085937
 20
161.02499389648437
 30
0.0
 10
177.67498779296875
 20
160.94248962402344
 30
0.0
 10
177.83749389648437
 20
160.87998962402344
 30
0.0
 10
178.00498962402344
 20
160.83248901367187
 30
0.0
 10
178.17498779296875
 20
160.802490234375
 30
0.0
 10
178.34248352050781
 20
160.78999328613281
 30
0.0
 10
178.51248168945312
 20
160.79498291015625
 30
0.0
 10
178.67999267578125
 20
160.81498718261719
 30
0.0
 10
178.84248352050781
 20
160.84999084472656
 30
0.0
 10
179.00248718261719
 20
160.89999389648437
 30
0.0
 10
179.15748596191406
 20
160.96748352050781
 30
0.0
 10
179.44499206542969
 20
161.14498901367187
 30
0.0
 10
179.69749450683594
 20
161.37748718261719
 30
0.0
 10
179.90498352050781
 20
161.66499328613281
 30
0.0
  0
LWPOLYLINE
  5
5A
100
AcDbEntity
  8
0
 62
-1
420
0
370
1
 48
1.0
  6
CONTINUOUS
100
AcDbPolyline
 90
49
 70
0
 10
201.76498413085937
 20
156.74998474121094
 30
0.0
 10
201.75498962402344
 20
156.927490234375
 30
0.0
 10
201.72998046875
 20
157.10249328613281
 30
0.0
 10
201.68748474121094
 20
157.26998901367187
 30
0.0
 10
201.62748718261719
 20
157.42999267578125
 30
0.0
 10
201.46748352050781
 20
157.72749328613281
 30
0.0
 10
201.25248718261719
 20
157.98748779296875
 30
0.0
 10
200.9949951171875
 20
158.19998168945312
 30
0.0
 10
200.69749450683594
 20
158.36248779296875
 30
0.0
 10
200.53498840332031
 20
158.41998291015625
 30
0.0
 10
200.36749267578125
 20
158.46499633789062
 30
0.0
 10
200.19499206542969
 20
158.489990234375
 30
0.0
 10
200.01498413085937
 20
158.49998474121094
 30
0.0
 10
199.83749389648437
 20
158.489990234375
 30
0.0
 10
199.66249084472656
 20
158.46499633789062
 30
0.0
 10
199.4949951171875
 20
158.41998291015625
 30
0.0
 10
199.33499145507812
 20
158.36248779296875
 30
0.0
 10
199.03749084472656
 20
158.19998168945312
 30
0.0
 10
198.77748107910156
 20
157.98748779296875
 30
0.0
 10
198.56498718261719
 20
157.72749328613281
 30
0.0
 10
198.40248107910156
 20
157.42999267578125
 30
0.0
 10
198.34498596191406
 20
157.26998901367187
 30
0.0
 10
198.29998779296875
 20
157.10249328613281
 30
0.0
 10
198.27499389648437
 20
156.927490234375
 30
0.0
 10
198.26498413085937
 20
156.74998474121094
 30
0.0
 10
198.27499389648437
 20
156.56999206542969
 30
0.0
 10
198.29998779296875
 20
156.39749145507812
 30
0.0
 10
198.34498596191406
 20
156.22999572753906
 30
0.0
 10
198.40248107910156
 20
156.06748962402344
 30
0.0
 10
198.56498718261719
 20
155.76998901367187
 30
0.0
 10
198.77748107910156
 20
155.50999450683594
 30
0.0
 10
199.03749084472656
 20
155.2974853515625
 30
0.0
 10
199.33499145507812
 20
155.13499450683594
 30
0.0
 10
199.4949951171875
 20
155.07748413085937
 30
0.0
 10
199.66249084472656
 20
155.03248596191406
 30
0.0
 10
199.83749389648437
 20
155.00749206542969
 30
0.0
 10
200.01498413085937
 20
154.99748229980469
 30
0.0
 10
200.19499206542969
 20
155.00749206542969
 30
0.0
 10
200.36749267578125
 20
155.03248596191406
 30
0.0
 10
200.53498840332031
 20
155.07748413085937
 30
0.0
 10
200.69749450683594
 20
155.13499450683594
 30
0.0
 10
200.9949951171875
 20
155.2974853515625
 30
0.0
 10
201.25248718261719
 20
155.50999450683594
 30
0.0
 10
201.46748352050781
 20
155.76998901367187
 30
0.0
 10
201.62748718261719
 20
156.06748962402344
 30
0.0
 10
201.68748474121094
 20
156.22999572753906
 30
0.0
 10
201.72998046875
 20
156.39749145507812
 30
0.0
 10
201.75498962402344
 20
156.56999206542969
 30
0.0
 10
201.76498413085937
 20
156.74998474121094
 30
0.0
  0
LWPOLYLINE
  5
5B
100
AcDbEntity
  8
0
 62
-1
420
0
370
1
 48
1.0
  6
CONTINUOUS
100
AcDbPolyline
 90
53
 70
0
 10
223.15748596191406
 20
163.4224853515625
 30
0.0
 10
222.94998168945313
 20
163.70999145507812
 30
0.0
 10
222.69749450683594
 20
163.94248962402344
 30
0.0
 10
222.40998840332031
 20
164.1199951171875
 30
0.0
 10
222.25498962402344
 20
164.18748474121094
 30
0.0
 10
222.09498596191406
 20
164.23748779296875
 30
0.0
 10
221.93247985839844
 20
164.27249145507812
 30
0.0
 10
221.76498413085937
 20
164.29249572753906
 30
0.0
 10
221.59498596191406
 20
164.2974853515625
 30
0.0
 10
221.427490234375
 20
164.28498840332031
 30
0.0
 10
221.25749206542969
 20
164.25498962402344
 30
0.0
 10
221.08998107910156
 20
164.20748901367188
 30
0.0
 10
220.927490234375
 20
164.14498901367187
 30
0.0
 10
220.76748657226562
 20
164.06248474121094
 30
0.0
 10
220.47998046875
 20
163.85499572753906
 30
0.0
 10
220.24497985839844
 20
163.60249328613281
 30
0.0
 10
220.06999206542969
 20
163.31498718261719
 30
0.0
 10
220.00248718261719
 20
163.15998840332031
 30
0.0
 10
219.95248413085937
 20
162.99998474121094
 30
0.0
 10
219.91499328613281
 20
162.83749389648437
 30
0.0
 10
219.89498901367187
 20
162.66998291015625
 30
0.0
 10
219.89248657226562
 20
162.49998474121094
 30
0.0
 10
219.90498352050781
 20
162.33248901367187
 30
0.0
 10
219.93247985839844
 20
162.16249084472656
 30
0.0
 10
219.97998046875
 20
161.9949951171875
 30
0.0
 10
220.04248046875
 20
161.83248901367187
 30
0.0
 10
220.12498474121094
 20
161.6724853515625
 30
0.0
 10
220.33248901367187
 20
161.38499450683594
 30
0.0
 10
220.58499145507812
 20
161.14999389648437
 30
0.0
 10
220.87498474121094
 20
160.97499084472656
 30
0.0
 10
221.02998352050781
 20
160.90748596191406
 30
0.0
 10
221.18998718261719
 20
160.85748291015625
 30
0.0
 10
221.35249328613281
 20
160.81999206542969
 30
0.0
 10
221.51998901367187
 20
160.79998779296875
 30
0.0
 10
221.68998718261719
 20
160.7974853515625
 30
0.0
 10
221.85748291015625
 20
160.80998229980469
 30
0.0
 10
222.02748107910156
 20
160.83999633789063
 30
0.0
 10
222.19499206542969
 20
160.88748168945313
 30
0.0
 10
222.35748291015625
 20
160.94998168945312
 30
0.0
 10
222.51748657226562
 20
161.03248596191406
 30
0.0
 10
222.80499267578125
 20
161.239990234375
 30
0.0
 10
223.03749084472656
 20
161.49249267578125
 30
0.0
 10
223.21498107910156
 20
161.77998352050781
 30
0.0
 10
223.28248596191406
 20
161.93498229980469
 30
0.0
 10
223.33248901367187
 20
162.09498596191406
 30
0.0
 10
223.36749267578125
 20
162.25749206542969
 30
0.0
 10
223.38748168945312
 20
162.42498779296875
 30
0.0
 10
223.39248657226562
 20
162.59498596191406
 30
0.0
 10
223.37998962402344
 20
162.76248168945312
 30
0.0
 10
223.34999084472656
 20
162.9324951171875
 30
0.0
 10
223.302490234375
 20
163.09999084472656
 30
0.0
 10
223.239990234375
 20
163.26248168945312
 30
0.0
 10
223.15748596191406
 20
163.4224853515625
 30
0.0
  0
LWPOLYLINE
  5
5C
100
AcDbEntity
  8
0
 62
-1
420
0
370
1
 48
1.0
  6
CONTINUOUS
100
AcDbPolyline
 90
53
 70
0
 10
238.34498596191406
 20
179.89749145507812
 30
0.0
 10
238.18498229980469
 20
179.97999572753906
 30
0.0
 10
238.02249145507812
 20
180.04249572753906
 30
0.0
 10
237.85498046875
 20
180.08998107910156
 30
0.0
 10
237.68498229980469
 20
180.1199951171875
 30
0.0
 10
237.51748657226562
 20
180.13249206542969
 30
0.0
 10
237.34748840332031
 20
180.12748718261719
 30
0.0
 10
237.17999267578125
 20
180.10748291015625
 30
0.0
 10
237.01748657226562
 20
180.07249450683594
 30
0.0
 10
236.85748291015625
 20
180.02249145507812
 30
0.0
 10
236.70248413085937
 20
179.95498657226562
 30
0.0
 10
236.41499328613281
 20
179.77748107910156
 30
0.0
 10
236.16249084472656
 20
179.54498291015625
 30
0.0
 10
235.95498657226562
 20
179.25749206542969
 30
0.0
 10
235.87248229980469
 20
179.09748840332031
 30
0.0
 10
235.80998229980469
 20
178.93498229980469
 30
0.0
 10
235.76248168945312
 20
178.76748657226562
 30
0.0
 10
235.73248291015625
 20
178.59748840332031
 30
0.0
 10
235.71998596191406
 20
178.42999267578125
 30
0.0
 10
235.72248840332031
 20
178.25999450683594
 30
0.0
 10
235.74249267578125
 20
178.09248352050781
 30
0.0
 10
235.77998352050781
 20
177.92999267578125
 30
0.0
 10
235.82998657226562
 20
177.76998901367188
 30
0.0
 10
235.89749145507812
 20
177.614990234375
 30
0.0
 10
236.07249450683594
 20
177.32498168945313
 30
0.0
 10
236.30747985839844
 20
177.07249450683594
 30
0.0
 10
236.59498596191406
 20
176.864990234375
 30
0.0
 10
236.75498962402344
 20
176.78248596191406
 30
0.0
 10
236.91748046875
 20
176.71998596191406
 30
0.0
 10
237.08499145507812
 20
176.6724853515625
 30
0.0
 10
237.25498962402344
 20
176.64498901367187
 30
0.0
 10
237.4224853515625
 20
176.63249206542969
 30
0.0
 10
237.59248352050781
 20
176.63499450683594
 30
0.0
 10
237.75999450683594
 20
176.65498352050781
 30
0.0
 10
237.9224853515625
 20
176.69248962402344
 30
0.0
 10
238.08248901367188
 20
176.74249267578125
 30
0.0
 10
238.23748779296875
 20
176.80998229980469
 30
0.0
 10
238.52499389648437
 20
176.9849853515625
 30
0.0
 10
238.77748107910156
 20
177.21998596191406
 30
0.0
 10
238.9849853515625
 20
177.50749206542969
 30
0.0
 10
239.06748962402344
 20
177.66749572753906
 30
0.0
 10
239.12998962402344
 20
177.82998657226562
 30
0.0
 10
239.177490234375
 20
177.99748229980469
 30
0.0
 10
239.20748901367187
 20
178.16499328613281
 30
0.0
 10
239.21998596191406
 20
178.33499145507812
 30
0.0
 10
239.21748352050781
 20
178.50248718261719
 30
0.0
 10
239.19749450683594
 20
178.66998291015625
 30
0.0
 10
239.15998840332031
 20
178.83499145507812
 30
0.0
 10
239.1099853515625
 20
178.9949951171875
 30
0.0
 10
239.04248046875
 20
179.14999389648437
 30
0.0
 10
238.86749267578125
 20
179.43748474121094
 30
0.0
 10
238.63249206542969
 20
179.68998718261719
 30
0.0
 10
238.34498596191406
 20
179.89749145507812
 30
0.0
  0
LWPOLYLINE
  5
5D
100
AcDbEntity
  8
0
 62
-1
420
0
370
1
 48
1.0
  6
CONTINUOUS
100
AcDbPolyline
 90
49
 70
0
 10
243.25999450683594
 20
201.75999450683594
 30
0.0
 10
243.08248901367187
 20
201.74998474121094
 30
0.0
 10
242.90748596191406
 20
201.72499084472656
 30
0.0
 10
242.739990234375
 20
201.67999267578125
 30
0.0
 10
242.57998657226562
 20
201.62248229980469
 30
0.0
 10
242.28248596191406
 20
201.45999145507812
 30
0.0
 10
242.02249145507812
 20
201.24748229980469
 30
0.0
 10
241.80998229980469
 20
200.98748779296875
 30
0.0
 10
241.64749145507812
 20
200.68998718261719
 30
0.0
 10
241.58998107910156
 20
200.52998352050781
 30
0.0
 10
241.54498291015625
 20
200.36248779296875
 30
0.0
 10
241.51998901367188
 20
200.18748474121094
 30
0.0
 10
241.50999450683594
 20
200.00999450683594
 30
0.0
 10
241.51998901367188
 20
199.82998657226562
 30
0.0
 10
241.54498291015625
 20
199.65748596191406
 30
0.0
 10
241.58998107910156
 20
199.489990234375
 30
0.0
 10
241.64749145507812
 20
199.32748413085937
 30
0.0
 10
241.80998229980469
 20
199.02998352050781
 30
0.0
 10
242.02249145507812
 20
198.77249145507812
 30
0.0
 10
242.28248596191406
 20
198.5574951171875
 30
0.0
 10
242.57998657226562
 20
198.39749145507812
 30
0.0
 10
242.739990234375
 20
198.33749389648437
 30
0.0
 10
242.90748596191406
 20
198.29498291015625
 30
0.0
 10
243.08248901367187
 20
198.26998901367187
 30
0.0
 10
243.25999450683594
 20
198.25999450683594
 30
0.0
 10
243.43998718261719
 20
198.26998901367187
 30
0.0
 10
243.61248779296875
 20
198.29498291015625
 30
0.0
 10
243.77998352050781
 20
198.33749389648437
 30
0.0
 10
243.94248962402344
 20
198.39749145507812
 30
0.0
 10
244.239990234375
 20
198.5574951171875
 30
0.0
 10
244.49748229980469
 20
198.77249145507812
 30
0.0
 10
244.71249389648437
 20
199.02998352050781
 30
0.0
 10
244.87248229980469
 20
199.32748413085937
 30
0.0
 10
244.93247985839844
 20
199.489990234375
 30
0.0
 10
244.97499084472656
 20
199.65748596191406
 30
0.0
 10
244.99998474121094
 20
199.82998657226562
 30
0.0
 10
245.00999450683594
 20
200.00999450683594
 30
0.0
 10
244.99998474121094
 20
200.18748474121094
 30
0.0
 10
244.97499084472656
 20
200.36248779296875
 30
0.0
 10
244.93247985839844
 20
200.52998352050781
 30
0.0
 10
244.87248229980469
 20
200.68998718261719
 30
0.0
 10
244.71249389648437
 20
200.98748779296875
 30
0.0
 10
244.49748229980469
 20
201.24748229980469
 30
0.0
 10
244.239990234375
 20
201.45999145507812
 30
0.0
 10
243.94248962402344
 20
201.62248229980469
 30
0.0
 10
243.77998352050781
 20
201.67999267578125
 30
0.0
 10
243.61248779296875
 20
201.72499084472656
 30
0.0
 10
243.43998718261719
 20
201.74998474121094
 30
0.0
 10
243.25999450683594
 20
201.75999450683594
 30
0.0
  0
LWPOLYLINE
  5
5E
100
AcDbEntity
  8
0
 62
-1
420
0
370
1
 48
1.0
  6
CONTINUOUS
100
AcDbPolyline
 90
53
 70
0
 10
236.58749389648437
 20
223.14749145507812
 30
0.0
 10
236.29998779296875
 20
222.93998718261719
 30
0.0
 10
236.06498718261719
 20
222.68748474121094
 30
0.0
 10
235.88998413085937
 20
222.39999389648437
 30
0.0
 10
235.82249450683594
 20
222.24497985839844
 30
0.0
 10
235.77249145507812
 20
222.08499145507812
 30
0.0
 10
235.7349853515625
 20
221.9224853515625
 30
0.0
 10
235.71498107910156
 20
221.75498962402344
 30
0.0
 10
235.71249389648437
 20
221.58499145507812
 30
0.0
 10
235.72499084472656
 20
221.41748046875
 30
0.0
 10
235.75248718261719
 20
221.24748229980469
 30
0.0
 10
235.79998779296875
 20
221.07998657226562
 30
0.0
 10
235.86248779296875
 20
220.91748046875
 30
0.0
 10
235.94499206542969
 20
220.75749206542969
 30
0.0
 10
236.15248107910156
 20
220.46998596191406
 30
0.0
 10
236.40498352050781
 20
220.23748779296875
 30
0.0
 10
236.69499206542969
 20
220.05998229980469
 30
0.0
 10
236.84999084472656
 20
219.99249267578125
 30
0.0
 10
237.00999450683594
 20
219.94248962402344
 30
0.0
 10
237.1724853515625
 20
219.90748596191406
 30
0.0
 10
237.33998107910156
 20
219.88748168945312
 30
0.0
 10
237.50999450683594
 20
219.88249206542969
 30
0.0
 10
237.677490234375
 20
219.89498901367187
 30
0.0
 10
237.84748840332031
 20
219.92498779296875
 30
0.0
 10
238.01498413085937
 20
219.97248840332031
 30
0.0
 10
238.177490234375
 20
220.03498840332031
 30
0.0
 10
238.33749389648437
 20
220.11749267578125
 30
0.0
 10
238.62498474121094
 20
220.32498168945312
 30
0.0
 10
238.85748291015625
 20
220.57748413085937
 30
0.0
 10
239.03498840332031
 20
220.864990234375
 30
0.0
 10
239.09999084472656
 20
221.01998901367187
 30
0.0
 10
239.15248107910156
 20
221.17999267578125
 30
0.0
 10
239.18748474121094
 20
221.34248352050781
 30
0.0
 10
239.20748901367187
 20
221.50999450683594
 30
0.0
 10
239.20999145507812
 20
221.67999267578125
 30
0.0
 10
239.19749450683594
 20
221.84748840332031
 30
0.0
 10
239.16998291015625
 20
222.01748657226562
 30
0.0
 10
239.12248229980469
 20
222.18498229980469
 30
0.0
 10
239.05998229980469
 20
222.34748840332031
 30
0.0
 10
238.97749328613281
 20
222.50749206542969
 30
0.0
 10
238.76998901367188
 20
222.79498291015625
 30
0.0
 10
238.51748657226562
 20
223.02998352050781
 30
0.0
 10
238.22749328613281
 20
223.20498657226562
 30
0.0
 10
238.07249450683594
 20
223.27249145507812
 30
0.0
 10
237.91499328613281
 20
223.32249450683594
 30
0.0
 10
237.74998474121094
 20
223.3599853515625
 30
0.0
 10
237.58248901367187
 20
223.37998962402344
 30
0.0
 10
237.41499328613281
 20
223.38249206542969
 30
0.0
 10
237.24497985839844
 20
223.36997985839844
 30
0.0
 10
237.07748413085937
 20
223.33998107910156
 30
0.0
 10
236.90998840332031
 20
223.29248046875
 30
0.0
 10
236.74748229980469
 20
223.22998046875
 30
0.0
 10
236.58749389648437
 20
223.14749145507812
 30
0.0
  0
LWPOLYLINE
  5
5F
100
AcDbEntity
  8
0
 62
-1
420
0
370
1
 48
1.0
  6
CONTINUOUS
100
AcDbPolyline
 90
53
 70
0
 10
220.1099853515625
 20
238.33499145507812
 30
0.0
 10
220.02748107910156
 20
238.17498779296875
 30
0.0
 10
219.96498107910156
 20
238.01248168945312
 30
0.0
 10
219.91748046875
 20
237.84498596191406
 30
0.0
 10
219.88998413085937
 20
237.67498779296875
 30
0.0
 10
219.87748718261719
 20
237.50749206542969
 30
0.0
 10
219.87998962402344
 20
237.33749389648437
 30
0.0
 10
219.89999389648437
 20
237.16998291015625
 30
0.0
 10
219.93498229980469
 20
237.00749206542969
 30
0.0
 10
219.98748779296875
 20
236.84748840332031
 30
0.0
 10
220.052490234375
 20
236.69248962402344
 30
0.0
 10
220.22998046875
 20
236.40498352050781
 30
0.0
 10
220.46249389648437
 20
236.15248107910156
 30
0.0
 10
220.74998474121094
 20
235.94499206542969
 30
0.0
 10
220.90998840332031
 20
235.86248779296875
 30
0.0
 10
221.07249450683594
 20
235.79998779296875
 30
0.0
 10
221.239990234375
 20
235.75248718261719
 30
0.0
 10
221.40998840332031
 20
235.72248840332031
 30
0.0
 10
221.57748413085937
 20
235.70999145507812
 30
0.0
 10
221.74748229980469
 20
235.71498107910156
 30
0.0
 10
221.91499328613281
 20
235.7349853515625
 30
0.0
 10
222.07748413085937
 20
235.76998901367188
 30
0.0
 10
222.23748779296875
 20
235.81999206542969
 30
0.0
 10
222.39248657226562
 20
235.88748168945312
 30
0.0
 10
222.68247985839844
 20
236.06498718261719
 30
0.0
 10
222.93498229980469
 20
236.2974853515625
 30
0.0
 10
223.14248657226562
 20
236.58499145507812
 30
0.0
 10
223.22499084472656
 20
236.74497985839844
 30
0.0
 10
223.28749084472656
 20
236.90748596191406
 30
0.0
 10
223.33499145507812
 20
237.07498168945313
 30
0.0
 10
223.36248779296875
 20
237.24497985839844
 30
0.0
 10
223.37498474121094
 20
237.41249084472656
 30
0.0
 10
223.37248229980469
 20
237.58248901367187
 30
0.0
 10
223.35249328613281
 20
237.74998474121094
 30
0.0
 10
223.31748962402344
 20
237.91249084472656
 30
0.0
 10
223.26498413085937
 20
238.07249450683594
 30
0.0
 10
223.19749450683594
 20
238.22749328613281
 30
0.0
 10
223.02249145507812
 20
238.51498413085937
 30
0.0
 10
222.78749084472656
 20
238.76748657226562
 30
0.0
 10
222.49998474121094
 20
238.97499084472656
 30
0.0
 10
222.33998107910156
 20
239.05747985839844
 30
0.0
 10
222.177490234375
 20
239.11997985839844
 30
0.0
 10
222.00999450683594
 20
239.16748046875
 30
0.0
 10
221.84248352050781
 20
239.19749450683594
 30
0.0
 10
221.6724853515625
 20
239.20999145507812
 30
0.0
 10
221.50498962402344
 20
239.20748901367187
 30
0.0
 10
221.33749389648437
 20
239.18748474121094
 30
0.0
 10
221.1724853515625
 20
239.14999389648437
 30
0.0
 10
221.01248168945312
 20
239.09999084472656
 30
0.0
 10
220.85748291015625
 20
239.03248596191406
 30
0.0
 10
220.56999206542969
 20
238.85748291015625
 30
0.0
 10
220.31748962402344
 20
238.62248229980469
 30
0.0
 10
220.1099853515625
 20
238.33499145507812
 30
0.0
  0
LWPOLYLINE
  5
60
100
AcDbEntity
  8
0
 62
-1
420
0
370
1
 48
1.0
  6
CONTINUOUS
100
AcDbPolyline
 90
97
 70
0
 10
200.91998291015625
 20
165.00497436523437
 30
0.0
 10
201.81748962402344
 20
165.0374755859375
 30
0.0
 10
202.70999145507812
 20
165.094970703125
 30
0.0
 10
203.59498596191406
 20
165.17247009277344
 30
0.0
 10
204.47499084472656
 20
165.27247619628906
 30
0.0
 10
205.34748840332031
 20
165.39497375488281
 30
0.0
 10
206.21249389648437
 20
165.53997802734375
 30
0.0
 10
207.06999206542969
 20
165.70248413085937
 30
0.0
 10
207.91998291015625
 20
165.88998413085937
 30
0.0
 10
208.76248168945312
 20
166.094970703125
 30
0.0
 10
209.59748840332031
 20
166.31997680664062
 30
0.0
 10
210.42498779296875
 20
166.56497192382812
 30
0.0
 10
211.24249267578125
 20
166.83247375488281
 30
0.0
 10
212.04998779296875
 20
167.11747741699219
 30
0.0
 10
212.84999084472656
 20
167.41998291015625
 30
0.0
 10
213.63998413085937
 20
167.74247741699219
 30
0.0
 10
214.41998291015625
 20
168.08497619628906
 30
0.0
 10
215.18998718261719
 20
168.44497680664062
 30
0.0
 10
215.94998168945312
 20
168.82247924804687
 30
0.0
 10
216.69998168945312
 20
169.21748352050781
 30
0.0
 10
217.43748474121094
 20
169.62997436523437
 30
0.0
 10
218.16499328613281
 20
170.05998229980469
 30
0.0
 10
218.87998962402344
 20
170.50747680664062
 30
0.0
 10
219.58499145507812
 20
170.969970703125
 30
0.0
 10
220.27748107910156
 20
171.44998168945312
 30
0.0
 10
220.95748901367188
 20
171.94747924804687
 30
0.0
 10
221.62498474121094
 20
172.45747375488281
 30
0.0
 10
222.27748107910156
 20
172.98497009277344
 30
0.0
 10
222.91998291015625
 20
173.52748107910156
 30
0.0
 10
223.5474853515625
 20
174.08497619628906
 30
0.0
 10
224.76498413085937
 20
175.24497985839844
 30
0.0
 10
225.9224853515625
 20
176.45997619628906
 30
0.0
 10
226.47998046875
 20
177.08998107910156
 30
0.0
 10
226.88090515136719
 20
177.56294250488281
 30
0.0
 10
208.92091369628906
 20
187.93214416503906
 30
0.0
 10
208.39498901367187
 20
187.55998229980469
 30
0.0
 10
207.78749084472656
 20
187.16998291015625
 30
0.0
 10
207.15998840332031
 20
186.80747985839844
 30
0.0
 10
206.51248168945313
 20
186.47747802734375
 30
0.0
 10
205.84748840332031
 20
186.17497253417969
 30
0.0
 10
205.16748046875
 20
185.907470703125
 30
0.0
 10
204.46998596191406
 20
185.67247009277344
 30
0.0
 10
203.75749206542969
 20
185.469970703125
 30
0.0
 10
203.03248596191406
 20
185.30247497558594
 30
0.0
 10
202.29498291015625
 20
185.16998291015625
 30
0.0
 10
201.54248046875
 20
185.07498168945312
 30
0.0
 10
200.78248596191406
 20
185.01747131347656
 30
0.0
 10
200.00999450683594
 20
184.99748229980469
 30
0.0
 10
199.23748779296875
 20
185.01747131347656
 30
0.0
 10
198.47499084472656
 20
185.07498168945312
 30
0.0
 10
197.72499084472656
 20
185.16998291015625
 30
0.0
 10
196.98748779296875
 20
185.30247497558594
 30
0.0
 10
196.25999450683594
 20
185.469970703125
 30
0.0
 10
195.54998779296875
 20
185.67247009277344
 30
0.0
 10
194.85249328613281
 20
185.907470703125
 30
0.0
 10
194.16998291015625
 20
186.17497253417969
 30
0.0
 10
193.50498962402344
 20
186.47747802734375
 30
0.0
 10
192.8599853515625
 20
186.80747985839844
 30
0.0
 10
192.22998046875
 20
187.16998291015625
 30
0.0
 10
191.62248229980469
 20
187.55998229980469
 30
0.0
 10
191.10592651367187
 20
187.92706298828125
 30
0.0
 10
173.1539306640625
 20
177.56245422363281
 30
0.0
 10
173.55499267578125
 20
177.08747863769531
 30
0.0
 10
174.11248779296875
 20
176.45997619628906
 30
0.0
 10
175.26998901367187
 20
175.24247741699219
 30
0.0
 10
176.48748779296875
 20
174.08497619628906
 30
0.0
 10
177.114990234375
 20
173.52748107910156
 30
0.0
 10
177.75498962402344
 20
172.98497009277344
 30
0.0
 10
178.40998840332031
 20
172.45747375488281
 30
0.0
 10
179.07748413085937
 20
171.94497680664062
 30
0.0
 10
179.75749206542969
 20
171.44998168945312
 30
0.0
 10
180.44998168945312
 20
170.969970703125
 30
0.0
 10
181.15498352050781
 20
170.50747680664062
 30
0.0
 10
181.8699951171875
 20
170.05998229980469
 30
0.0
 10
182.59748840332031
 20
169.62997436523437
 30
0.0
 10
183.33499145507812
 20
169.21748352050781
 30
0.0
 10
184.08499145507812
 20
168.82247924804687
 30
0.0
 10
184.84498596191406
 20
168.44497680664062
 30
0.0
 10
185.614990234375
 20
168.08497619628906
 30
0.0
 10
186.39498901367187
 20
167.74247741699219
 30
0.0
 10
187.18498229980469
 20
167.41998291015625
 30
0.0
 10
187.9849853515625
 20
167.11747741699219
 30
0.0
 10
188.79249572753906
 20
166.83247375488281
 30
0.0
 10
189.6099853515625
 20
166.56747436523437
 30
0.0
 10
190.43748474121094
 20
166.31997680664062
 30
0.0
 10
191.26998901367187
 20
166.094970703125
 30
0.0
 10
192.11248779296875
 20
165.88998413085937
 30
0.0
 10
192.96498107910156
 20
165.70497131347656
 30
0.0
 10
193.82249450683594
 20
165.53997802734375
 30
0.0
 10
194.68748474121094
 20
165.39747619628906
 30
0.0
 10
195.55998229980469
 20
165.27497863769531
 30
0.0
 10
196.43748474121094
 20
165.17497253417969
 30
0.0
 10
197.32498168945313
 20
165.094970703125
 30
0.0
 10
198.21498107910156
 20
165.03997802734375
 30
0.0
 10
199.11248779296875
 20
165.00497436523437
 30
0.0
 10
200.01748657226562
 20
164.99247741699219
 30
0.0
 10
200.91998291015625
 20
165.00497436523437
 30
0.0
  0
LWPOLYLINE
  5
61
100
AcDbEntity
  8
0
 62
-1
420
0
370
1
 48
1.0
  6
CONTINUOUS
100
AcDbPolyline
 90
102
 70
0
 10
185.10331726074219
 20
198.31785583496094
 30
0.0
 10
185.08499145507812
 20
198.46247863769531
 30
0.0
 10
185.02748107910156
 20
199.2249755859375
 30
0.0
 10
185.00749206542969
 20
199.99748229980469
 30
0.0
 10
185.02748107910156
 20
200.76997375488281
 30
0.0
 10
185.08499145507812
 20
201.532470703125
 30
0.0
 10
185.17999267578125
 20
202.282470703125
 30
0.0
 10
185.31248474121094
 20
203.01997375488281
 30
0.0
 10
185.47999572753906
 20
203.74748229980469
 30
0.0
 10
185.6824951171875
 20
204.45747375488281
 30
0.0
 10
185.91749572753906
 20
205.15498352050781
 30
0.0
 10
186.18748474121094
 20
205.83747863769531
 30
0.0
 10
186.48748779296875
 20
206.49996948242187
 30
0.0
 10
186.81748962402344
 20
207.14747619628906
 30
0.0
 10
187.17999267578125
 20
207.77497863769531
 30
0.0
 10
187.56999206542969
 20
208.38497924804687
 30
0.0
 10
187.98748779296875
 20
208.97247314453125
 30
0.0
 10
188.4324951171875
 20
209.53997802734375
 30
0.0
 10
188.90498352050781
 20
210.08247375488281
 30
0.0
 10
189.40248107910156
 20
210.60498046875
 30
0.0
 10
189.9224853515625
 20
211.0999755859375
 30
0.0
 10
190.46748352050781
 20
211.57247924804687
 30
0.0
 10
191.03498840332031
 20
212.01747131347656
 30
0.0
 10
191.62248229980469
 20
212.43498229980469
 30
0.0
 10
192.22998046875
 20
212.82498168945313
 30
0.0
 10
192.8599853515625
 20
213.18746948242187
 30
0.0
 10
193.50498962402344
 20
213.51747131347656
 30
0.0
 10
194.009033203125
 20
213.74676513671875
 30
0.0
 10
194.00900268554687
 20
234.47123718261719
 30
0.0
 10
193.82249450683594
 20
234.43997192382812
 30
0.0
 10
192.96498107910156
 20
234.27748107910156
 30
0.0
 10
192.114990234375
 20
234.09248352050781
 30
0.0
 10
191.27249145507812
 20
233.88497924804687
 30
0.0
 10
190.43748474121094
 20
233.65997314453125
 30
0.0
 10
189.6099853515625
 20
233.41497802734375
 30
0.0
 10
188.79249572753906
 20
233.14747619628906
 30
0.0
 10
187.9849853515625
 20
232.86497497558594
 30
0.0
 10
187.18498229980469
 20
232.55998229980469
 30
0.0
 10
186.39498901367187
 20
232.23747253417969
 30
0.0
 10
185.614990234375
 20
231.89497375488281
 30
0.0
 10
184.84498596191406
 20
231.53497314453125
 30
0.0
 10
184.08499145507812
 20
231.157470703125
 30
0.0
 10
183.33499145507812
 20
230.76248168945313
 30
0.0
 10
182.59748840332031
 20
230.3499755859375
 30
0.0
 10
181.8699951171875
 20
229.91998291015625
 30
0.0
 10
181.15498352050781
 20
229.47247314453125
 30
0.0
 10
180.44998168945312
 20
229.00997924804687
 30
0.0
 10
179.75749206542969
 20
228.52998352050781
 30
0.0
 10
179.07748413085937
 20
228.03497314453125
 30
0.0
 10
178.40998840332031
 20
227.52247619628906
 30
0.0
 10
177.75498962402344
 20
226.99497985839844
 30
0.0
 10
177.11248779296875
 20
226.45246887207031
 30
0.0
 10
176.4849853515625
 20
225.89497375488281
 30
0.0
 10
175.26998901367187
 20
224.73747253417969
 30
0.0
 10
174.1099853515625
 20
223.51997375488281
 30
0.0
 10
173.552490234375
 20
222.89247131347656
 30
0.0
 10
173.00999450683594
 20
222.25247192382812
 30
0.0
 10
172.48248291015625
 20
221.59747314453125
 30
0.0
 10
171.96998596191406
 20
220.92997741699219
 30
0.0
 10
171.47499084472656
 20
220.24996948242187
 30
0.0
 10
170.9949951171875
 20
219.55747985839844
 30
0.0
 10
170.52998352050781
 20
218.85247802734375
 30
0.0
 10
170.08248901367187
 20
218.13748168945312
 30
0.0
 10
169.65248107910156
 20
217.40997314453125
 30
0.0
 10
169.239990234375
 20
216.67247009277344
 30
0.0
 10
168.84498596191406
 20
215.92247009277344
 30
0.0
 10
168.46748352050781
 20
215.1624755859375
 30
0.0
 10
168.10748291015625
 20
214.39247131347656
 30
0.0
 10
167.76498413085937
 20
213.61247253417969
 30
0.0
 10
167.44248962402344
 20
212.82247924804687
 30
0.0
 10
167.13748168945312
 20
212.02247619628906
 30
0.0
 10
166.85249328613281
 20
211.21498107910156
 30
0.0
 10
166.58749389648437
 20
210.39747619628906
 30
0.0
 10
166.33998107910156
 20
209.56997680664062
 30
0.0
 10
166.114990234375
 20
208.73747253417969
 30
0.0
 10
165.90748596191406
 20
207.89497375488281
 30
0.0
 10
165.72248840332031
 20
207.04248046875
 30
0.0
 10
165.5574951171875
 20
206.18498229980469
 30
0.0
 10
165.41499328613281
 20
205.31997680664062
 30
0.0
 10
165.29249572753906
 20
204.44747924804687
 30
0.0
 10
165.18998718261719
 20
203.56997680664062
 30
0.0
 10
165.1099853515625
 20
202.68247985839844
 30
0.0
 10
165.05499267578125
 20
201.79248046875
 30
0.0
 10
165.01998901367188
 20
200.89497375488281
 30
0.0
 10
165.00749206542969
 20
199.98997497558594
 30
0.0
 10
165.01998901367188
 20
199.98997497558594
 30
0.0
 10
165.03248596191406
 20
199.08747863769531
 30
0.0
 10
165.06498718261719
 20
198.18997192382812
 30
0.0
 10
165.12248229980469
 20
197.29747009277344
 30
0.0
 10
165.19998168945312
 20
196.4124755859375
 30
0.0
 10
165.29998779296875
 20
195.532470703125
 30
0.0
 10
165.4224853515625
 20
194.65997314453125
 30
0.0
 10
165.56748962402344
 20
193.79498291015625
 30
0.0
 10
165.72999572753906
 20
192.93746948242187
 30
0.0
 10
165.91499328613281
 20
192.08747863769531
 30
0.0
 10
166.12248229980469
 20
191.24497985839844
 30
0.0
 10
166.34748840332031
 20
190.40997314453125
 30
0.0
 10
166.59248352050781
 20
189.58247375488281
 30
0.0
 10
166.8599853515625
 20
188.76498413085937
 30
0.0
 10
167.14248657226562
 20
187.95747375488281
 30
0.0
 10
167.14540100097656
 20
187.94984436035156
 30
0.0
 10
185.10331726074219
 20
198.31785583496094
 30
0.0
  0
LWPOLYLINE
  5
62
100
AcDbEntity
  8
0
 62
-1
420
0
370
1
 48
1.0
  6
CONTINUOUS
100
AcDbPolyline
 90
101
 70
0
 10
232.88998413085937
 20
187.96247863769531
 30
0.0
 10
233.17498779296875
 20
188.77247619628906
 30
0.0
 10
233.43998718261719
 20
189.58998107910156
 30
0.0
 10
233.68748474121094
 20
190.41748046875
 30
0.0
 10
233.91249084472656
 20
191.25247192382812
 30
0.0
 10
234.11749267578125
 20
192.094970703125
 30
0.0
 10
234.302490234375
 20
192.94497680664062
 30
0.0
 10
234.46748352050781
 20
193.80497741699219
 30
0.0
 10
234.6099853515625
 20
194.66998291015625
 30
0.0
 10
234.73248291015625
 20
195.54248046875
 30
0.0
 10
234.83248901367187
 20
196.42247009277344
 30
0.0
 10
234.91249084472656
 20
197.30747985839844
 30
0.0
 10
234.96748352050781
 20
198.19998168945312
 30
0.0
 10
235.00248718261719
 20
199.09747314453125
 30
0.0
 10
235.01498413085937
 20
200.00247192382812
 30
0.0
 10
235.00248718261719
 20
200.89247131347656
 30
0.0
 10
234.96998596191406
 20
201.78997802734375
 30
0.0
 10
234.91249084472656
 20
202.68247985839844
 30
0.0
 10
234.83499145507812
 20
203.56747436523437
 30
0.0
 10
234.7349853515625
 20
204.44747924804687
 30
0.0
 10
234.61248779296875
 20
205.31997680664062
 30
0.0
 10
234.46748352050781
 20
206.18498229980469
 30
0.0
 10
234.30499267578125
 20
207.04248046875
 30
0.0
 10
234.11749267578125
 20
207.89247131347656
 30
0.0
 10
233.91249084472656
 20
208.73497009277344
 30
0.0
 10
233.68748474121094
 20
209.56997680664062
 30
0.0
 10
233.44248962402344
 20
210.39747619628906
 30
0.0
 10
233.17498779296875
 20
211.21498107910156
 30
0.0
 10
232.88998413085937
 20
212.02247619628906
 30
0.0
 10
232.58749389648437
 20
212.82247924804687
 30
0.0
 10
232.26498413085937
 20
213.61247253417969
 30
0.0
 10
231.9224853515625
 20
214.39247131347656
 30
0.0
 10
231.56248474121094
 20
215.1624755859375
 30
0.0
 10
231.18498229980469
 20
215.92247009277344
 30
0.0
 10
230.78999328613281
 20
216.67247009277344
 30
0.0
 10
230.37748718261719
 20
217.40997314453125
 30
0.0
 10
229.94749450683594
 20
218.13748168945312
 30
0.0
 10
229.49998474121094
 20
218.85247802734375
 30
0.0
 10
229.03749084472656
 20
219.55747985839844
 30
0.0
 10
228.55747985839844
 20
220.24996948242187
 30
0.0
 10
228.05998229980469
 20
220.92997741699219
 30
0.0
 10
227.54998779296875
 20
221.59747314453125
 30
0.0
 10
227.02249145507812
 20
222.25247192382812
 30
0.0
 10
226.47998046875
 20
222.89497375488281
 30
0.0
 10
225.9224853515625
 20
223.52247619628906
 30
0.0
 10
224.76248168945312
 20
224.73747253417969
 30
0.0
 10
223.5474853515625
 20
225.89747619628906
 30
0.0
 10
222.91748046875
 20
226.45497131347656
 30
0.0
 10
222.27748107910156
 20
226.99748229980469
 30
0.0
 10
221.62248229980469
 20
227.52497863769531
 30
0.0
 10
220.95498657226562
 20
228.0374755859375
 30
0.0
 10
220.27499389648437
 20
228.532470703125
 30
0.0
 10
219.58248901367188
 20
229.01248168945312
 30
0.0
 10
218.87748718261719
 20
229.47747802734375
 30
0.0
 10
218.15998840332031
 20
229.92497253417969
 30
0.0
 10
217.4324951171875
 20
230.35498046875
 30
0.0
 10
216.69499206542969
 20
230.76747131347656
 30
0.0
 10
215.94499206542969
 20
231.1624755859375
 30
0.0
 10
215.18498229980469
 20
231.53997802734375
 30
0.0
 10
214.41499328613281
 20
231.89997863769531
 30
0.0
 10
213.63499450683594
 20
232.24247741699219
 30
0.0
 10
212.84498596191406
 20
232.56497192382812
 30
0.0
 10
212.04498291015625
 20
232.86997985839844
 30
0.0
 10
211.2349853515625
 20
233.15498352050781
 30
0.0
 10
210.41748046875
 20
233.41998291015625
 30
0.0
 10
209.58998107910156
 20
233.66748046875
 30
0.0
 10
208.75498962402344
 20
233.89247131347656
 30
0.0
 10
207.91249084472656
 20
234.0999755859375
 30
0.0
 10
207.06248474121094
 20
234.28497314453125
 30
0.0
 10
206.20248413085937
 20
234.44998168945312
 30
0.0
 10
206.00898742675781
 20
234.48185729980469
 30
0.0
 10
206.00900268554687
 20
213.74650573730469
 30
0.0
 10
206.51248168945313
 20
213.51747131347656
 30
0.0
 10
207.15998840332031
 20
213.18746948242187
 30
0.0
 10
207.78749084472656
 20
212.82498168945313
 30
0.0
 10
208.39498901367187
 20
212.43498229980469
 30
0.0
 10
208.9849853515625
 20
212.01747131347656
 30
0.0
 10
209.54998779296875
 20
211.57247924804687
 30
0.0
 10
210.09498596191406
 20
211.0999755859375
 30
0.0
 10
210.614990234375
 20
210.60498046875
 30
0.0
 10
211.11248779296875
 20
210.08247375488281
 30
0.0
 10
211.58499145507812
 20
209.53997802734375
 30
0.0
 10
212.02998352050781
 20
208.97247314453125
 30
0.0
 10
212.44749450683594
 20
208.38497924804687
 30
0.0
 10
212.83749389648437
 20
207.77497863769531
 30
0.0
 10
213.19998168945312
 20
207.14747619628906
 30
0.0
 10
213.52998352050781
 20
206.49996948242187
 30
0.0
 10
213.82998657226562
 20
205.83747863769531
 30
0.0
 10
214.09999084472656
 20
205.15498352050781
 30
0.0
 10
214.33499145507812
 20
204.45747375488281
 30
0.0
 10
214.53749084472656
 20
203.74748229980469
 30
0.0
 10
214.70498657226562
 20
203.01997375488281
 30
0.0
 10
214.83749389648437
 20
202.282470703125
 30
0.0
 10
214.9324951171875
 20
201.532470703125
 30
0.0
 10
214.989990234375
 20
200.76997375488281
 30
0.0
 10
215.00999450683594
 20
199.99748229980469
 30
0.0
 10
214.989990234375
 20
199.2249755859375
 30
0.0
 10
214.9324951171875
 20
198.46247863769531
 30
0.0
 10
214.9154052734375
 20
198.32762145996094
 30
0.0
 10
232.8861083984375
 20
187.95222473144531
 30
0.0
 10
232.88998413085937
 20
187.96247863769531
 30
0.0
  0
ENDSEC
  0
SECTION
  2
OBJECTS
  0
DICTIONARY
  5
C
100
AcDbDictionary
280
0
281
1
  3
ACAD_GROUP
350
D
  3
ACAD_LAYOUT
350
1A
  3
ACAD_MLINESTYLE
350
17
  3
ACAD_PLOTSETTINGS
350
19
  3
ACAD_PLOTSTYLENAME
350
E
  3
AcDbVariableDictionary
350
63
  0
DICTIONARY
  5
D
100
AcDbDictionary
280
0
281
1
  0
ACDBDICTIONARYWDFLT
  5
E
100
AcDbDictionary
281
1
  3
Normal
350
F
100
AcDbDictionaryWithDefault
340
F
  0
ACDBPLACEHOLDER
  5
F
  0
DICTIONARY
  5
17
100
AcDbDictionary
280
0
281
1
  3
Standard
350
18
  0
MLINESTYLE
  5
18
100
AcDbMlineStyle
  2
STANDARD
 70
0
  3

 62
256
 51
90.0
 52
90.0
 71
2
 49
0.5
 62
256
  6
BYLAYER
 49
-0.5
 62
256
  6
BYLAYER
  0
DICTIONARY
  5
19
100
AcDbDictionary
280
0
281
1
  0
DICTIONARY
  5
1A
100
AcDbDictionary
281
1
  3
Layout1
350
1E
  3
Layout2
350
26
  3
Model
350
22
  0
LAYOUT
  5
1E
100
AcDbPlotSettings
  1

  2
none_device
  4

  6

 40
0.0
 41
0.0
 42
0.0
 43
0.0
 44
0.0
 45
0.0
 46
0.0
 47
0.0
 48
0.0
 49
0.0
140
0.0
141
0.0
142
1.0
143
1.0
 70
688
 72
0
 73
0
 74
5
  7

 75
16
147
1.0
148
0.0
149
0.0
100
AcDbLayout
  1
Layout1
 70
1
 71
1
 10
0.0
 20
0.0
 11
420.0
 21
297.0
 12
0.0
 22
0.0
 32
0.0
 14
100000000000000000000.0
 24
100000000000000000000.0
 34
100000000000000000000.0
 15
-100000000000000000000.0
 25
-100000000000000000000.0
 35
-100000000000000000000.0
146
0.0
 13
0.0
 23
0.0
 33
0.0
 16
1.0
 26
0.0
 36
0.0
 17
0.0
 27
1.0
 37
0.0
 76
0
330
1B
  0
LAYOUT
  5
22
100
AcDbPlotSettings
  1

  2
none_device
  4

  6

 40
0.0
 41
0.0
 42
0.0
 43
0.0
 44
0.0
 45
0.0
 46
0.0
 47
0.0
 48
0.0
 49
0.0
140
0.0
141
0.0
142
1.0
143
1.0
 70
1712
 72
0
 73
0
 74
0
  7

 75
0
147
1.0
148
0.0
149
0.0
100
AcDbLayout
  1
Model
 70
1
 71
0
 10
0.0
 20
0.0
 11
12.0
 21
9.0
 12
0.0
 22
0.0
 32
0.0
 14
0.0
 24
0.0
 34
0.0
 15
0.0
 25
0.0
 35
0.0
146
0.0
 13
0.0
 23
0.0
 33
0.0
 16
1.0
 26
0.0
 36
0.0
 17
0.0
 27
1.0
 37
0.0
 76
0
330
1F
  0
LAYOUT
  5
26
100
AcDbPlotSettings
  1

  2
none_device
  4

  6

 40
0.0
 41
0.0
 42
0.0
 43
0.0
 44
0.0
 45
0.0
 46
0.0
 47
0.0
 48
0.0
 49
0.0
140
0.0
141
0.0
142
1.0
143
1.0
 70
688
 72
0
 73
0
 74
5
  7

 75
16
147
1.0
148
0.0
149
0.0
100
AcDbLayout
  1
Layout2
 70
1
 71
2
 10
0.0
 20
0.0
 11
12.0
 21
9.0
 12
0.0
 22
0.0
 32
0.0
 14
0.0
 24
0.0
 34
0.0
 15
0.0
 25
0.0
 35
0.0
146
0.0
 13
0.0
 23
0.0
 33
0.0
 16
1.0
 26
0.0
 36
0.0
 17
0.0
 27
1.0
 37
0.0
 76
0
330
23
  0
DICTIONARY
  5
63
100
AcDbDictionary
281
1
  3
DIMASSOC
350
65
  3
HIDETEXT
350
64
  0
DICTIONARYVAR
  5
64
100
DictionaryVariables
280
0
  1
2
  0
DICTIONARYVAR
  5
65
100
DictionaryVariables
280
0
  1
1
  0
ENDSEC
  0
EOF
