999
dxflib 3.17.0.0
  0
SECTION
  2
HEADER
  9
$ACADVER
  1
AC1015
  9
$HANDSEED
  5
FFFF
  9
$INSUNITS
 70
4
  9
$DIMEXE
 40
1.25
  9
$TEXTSTYLE
  7
Standard
  9
$LIMMIN
 10
0.0
 20
0.0
  0
ENDSEC
  0
SECTION
  2
TABLES
  0
TABLE
  2
VPORT
  5
8
100
AcDbSymbolTable
 70
1
  0
VPORT
  5
30
100
AcDbSymbolTableRecord
100
AcDbViewportTableRecord
  2
*Active
 70
0
 10
0.0
 20
0.0
 11
1.0
 21
1.0
 12
286.30555555555549
 22
148.5
 13
0.0
 23
0.0
 14
10.0
 24
10.0
 15
10.0
 25
10.0
 16
0.0
 26
0.0
 36
1.0
 17
0.0
 27
0.0
 37
0.0
 40
297.0
 41
1.92798353909465
 42
50.0
 43
0.0
 44
0.0
 50
0.0
 51
0.0
 71
0
 72
100
 73
1
 74
3
 75
1
 76
1
 77
0
 78
0
281
0
 65
1
110
0.0
120
0.0
130
0.0
111
1.0
121
0.0
131
0.0
112
0.0
122
1.0
132
0.0
 79
0
146
0.0
  0
ENDTAB
  0
TABLE
  2
LTYPE
  5
5
100
AcDbSymbolTable
 70
25
  0
LTYPE
  5
14
100
AcDbSymbolTableRecord
100
AcDbLinetypeTableRecord
  2
BYBLOCK
 70
0
  3

 72
65
 73
0
 40
0.0
  0
LTYPE
  5
15
100
AcDbSymbolTableRecord
100
AcDbLinetypeTableRecord
  2
BYLAYER
 70
0
  3

 72
65
 73
0
 40
0.0
  0
LTYPE
  5
16
100
AcDbSymbolTableRecord
100
AcDbLinetypeTableRecord
  2
CONTINUOUS
 70
0
  3
Solid line
 72
65
 73
0
 40
0.0
  0
LTYPE
  5
31
100
AcDbSymbolTableRecord
100
AcDbLinetypeTableRecord
  2
ACAD_ISO02W100
 70
0
  3

 72
65
 73
0
 40
0.0
  0
LTYPE
  5
32
100
AcDbSymbolTableRecord
100
AcDbLinetypeTableRecord
  2
ACAD_ISO03W100
 70
0
  3

 72
65
 73
0
 40
0.0
  0
LTYPE
  5
33
100
AcDbSymbolTableRecord
100
AcDbLinetypeTableRecord
  2
ACAD_ISO04W100
 70
0
  3

 72
65
 73
0
 40
0.0
  0
LTYPE
  5
34
100
AcDbSymbolTableRecord
100
AcDbLinetypeTableRecord
  2
ACAD_ISO05W100
 70
0
  3

 72
65
 73
0
 40
0.0
  0
LTYPE
  5
35
100
AcDbSymbolTableRecord
100
AcDbLinetypeTableRecord
  2
BORDER
 70
0
  3

 72
65
 73
0
 40
0.0
  0
LTYPE
  5
36
100
AcDbSymbolTableRecord
100
AcDbLinetypeTableRecord
  2
BORDER2
 70
0
  3

 72
65
 73
0
 40
0.0
  0
LTYPE
  5
37
100
AcDbSymbolTableRecord
100
AcDbLinetypeTableRecord
  2
BORDERX2
 70
0
  3

 72
65
 73
0
 40
0.0
  0
LTYPE
  5
38
100
AcDbSymbolTableRecord
100
AcDbLinetypeTableRecord
  2
CENTER
 70
0
  3

 72
65
 73
0
 40
0.0
  0
LTYPE
  5
39
100
AcDbSymbolTableRecord
100
AcDbLinetypeTableRecord
  2
CENTER2
 70
0
  3

 72
65
 73
0
 40
0.0
  0
LTYPE
  5
3A
100
AcDbSymbolTableRecord
100
AcDbLinetypeTableRecord
  2
CENTERX2
 70
0
  3

 72
65
 73
0
 40
0.0
  0
LTYPE
  5
3B
100
AcDbSymbolTableRecord
100
AcDbLinetypeTableRecord
  2
DASHDOT
 70
0
  3

 72
65
 73
0
 40
0.0
  0
LTYPE
  5
3C
100
AcDbSymbolTableRecord
100
AcDbLinetypeTableRecord
  2
DASHDOT2
 70
0
  3

 72
65
 73
0
 40
0.0
  0
LTYPE
  5
3D
100
AcDbSymbolTableRecord
100
AcDbLinetypeTableRecord
  2
DASHDOTX2
 70
0
  3

 72
65
 73
0
 40
0.0
  0
LTYPE
  5
3E
100
AcDbSymbolTableRecord
100
AcDbLinetypeTableRecord
  2
DASHED
 70
0
  3

 72
65
 73
0
 40
0.0
  0
LTYPE
  5
3F
100
AcDbSymbolTableRecord
100
AcDbLinetypeTableRecord
  2
DASHED2
 70
0
  3

 72
65
 73
0
 40
0.0
  0
LTYPE
  5
40
100
AcDbSymbolTableRecord
100
AcDbLinetypeTableRecord
  2
DASHEDX2
 70
0
  3

 72
65
 73
0
 40
0.0
  0
LTYPE
  5
41
100
AcDbSymbolTableRecord
100
AcDbLinetypeTableRecord
  2
DIVIDE
 70
0
  3

 72
65
 73
0
 40
0.0
  0
LTYPE
  5
42
100
AcDbSymbolTableRecord
100
AcDbLinetypeTableRecord
  2
DIVIDE2
 70
0
  3

 72
65
 73
0
 40
0.0
  0
LTYPE
  5
43
100
AcDbSymbolTableRecord
100
AcDbLinetypeTableRecord
  2
DIVIDEX2
 70
0
  3

 72
65
 73
0
 40
0.0
  0
LTYPE
  5
44
100
AcDbSymbolTableRecord
100
AcDbLinetypeTableRecord
  2
DOT
 70
0
  3

 72
65
 73
0
 40
0.0
  0
LTYPE
  5
45
100
AcDbSymbolTableRecord
100
AcDbLinetypeTableRecord
  2
DOT2
 70
0
  3

 72
65
 73
0
 40
0.0
  0
LTYPE
  5
46
100
AcDbSymbolTableRecord
100
AcDbLinetypeTableRecord
  2
DOTX2
 70
0
  3

 72
65
 73
0
 40
0.0
  0
ENDTAB
  0
TABLE
  2
LAYER
  5
2
100
AcDbSymbolTable
 70
1
  0
LAYER
  5
10
100
AcDbSymbolTableRecord
100
AcDbLayerTableRecord
  2
0
 70
0
 62
-1
420
0
  6
CONTINUOUS
370
1
390
F
  0
ENDTAB
  0
STYLE
  5
47
100
AcDbSymbolTableRecord
100
AcDbTextStyleTableRecord
  2

 70
0
 40
0.0
 41
0.0
 50
0.0
 71
0
 42
0.0
  3

  4

1001
ACAD
1000

1071
0
  0
TABLE
  2
VIEW
  5
6
100
AcDbSymbolTable
 70
0
  0
ENDTAB
  0
TABLE
  2
UCS
  5
7
100
AcDbSymbolTable
 70
0
  0
ENDTAB
  0
TABLE
  2
APPID
  5
9
100
AcDbSymbolTable
 70
1
  0
APPID
  5
12
100
AcDbSymbolTableRecord
100
AcDbRegAppTableRecord
  2
ACAD
 70
0
  0
ENDTAB
  0
TABLE
  2
DIMSTYLE
  5
A
100
AcDbSymbolTable
 70
1
100
AcDbDimStyleTable
 71
0
  0
DIMSTYLE
105
27
100
AcDbSymbolTableRecord
100
AcDbDimStyleTableRecord
  2
Standard
 41
1.0
 42
1.0
 43
3.75
 44
1.0
 70
0
 73
0
 74
0
 77
1
 78
8
140
1.0
141
2.5
143
0.03937007874016
147
1.0
171
3
172
1
271
2
272
2
274
3
278
44
283
0
284
8
340
0
  0
ENDTAB
  0
TABLE
  2
BLOCK_RECORD
  5
1
100
AcDbSymbolTable
 70
1
  0
BLOCK_RECORD
  5
1F
100
AcDbSymbolTableRecord
100
AcDbBlockTableRecord
  2
*Model_Space
340
22
  0
BLOCK_RECORD
  5
1B
100
AcDbSymbolTableRecord
100
AcDbBlockTableRecord
  2
*Paper_Space
340
1E
  0
BLOCK_RECORD
  5
23
100
AcDbSymbolTableRecord
100
AcDbBlockTableRecord
  2
*Paper_Space0
340
26
  0
BLOCK_RECORD
  5
48
100
AcDbSymbolTableRecord
100
AcDbBlockTableRecord
  2
myblock1
340
0
  0
BLOCK_RECORD
  5
49
100
AcDbSymbolTableRecord
100
AcDbBlockTableRecord
  2
myblock2
340
0
  0
ENDTAB
  0
ENDSEC
  0
SECTION
  2
BLOCKS
  0
BLOCK
  5
20
100
AcDbEntity
  8
0
100
AcDbBlockBegin
  2
*Model_Space
 70
0
 10
0.0
 20
0.0
 30
0.0
  3
*Model_Space
  1

  0
ENDBLK
  5
21
100
AcDbEntity
  8
0
100
AcDbBlockEnd
  0
BLOCK
  5
1C
100
AcDbEntity
 67
1
  8
0
100
AcDbBlockBegin
  2
*Paper_Space
 70
0
 10
0.0
 20
0.0
 30
0.0
  3
*Paper_Space
  1

  0
ENDBLK
  5
1D
100
AcDbEntity
 67
1
  8
0
100
AcDbBlockEnd
  0
BLOCK
  5
24
100
AcDbEntity
  8
0
100
AcDbBlockBegin
  2
*Paper_Space0
 70
0
 10
0.0
 20
0.0
 30
0.0
  3
*Paper_Space0
  1

  0
ENDBLK
  5
25
100
AcDbEntity
  8
0
100
AcDbBlockEnd
  0
BLOCK
  5
4A
100
AcDbEntity
  8
0
100
AcDbBlockBegin
  2
myblock1
 70
0
 10
0.0
 20
0.0
 30
0.0
  3
myblock1
  1

  0
ENDBLK
  5
4B
100
AcDbEntity
  8
0
100
AcDbBlockEnd
  0
BLOCK
  5
4C
100
AcDbEntity
  8
0
100
AcDbBlockBegin
  2
myblock2
 70
0
 10
0.0
 20
0.0
 30
0.0
  3
myblock2
  1

  0
ENDBLK
  5
4D
100
AcDbEntity
  8
0
100
AcDbBlockEnd
  0
ENDSEC
  0
SECTION
  2
ENTITIES
  0
LWPOLYLINE
  5
4E
100
AcDbEntity
  8
0
 62
-1
420
0
370
1
 48
1.0
  6
CONTINUOUS
100
AcDbPolyline
 90
133
 70
0
 10
425.86129760742187
 20
240.30415344238281
 30
0.0
 10
424.08334350585937
 20
243.12852478027344
 30
0.0
 10
422.24533081054687
 20
245.89230346679687
 30
0.0
 10
420.35031127929687
 20
248.59439086914062
 30
0.0
 10
418.39297485351562
 20
251.23451232910156
 30
0.0
 10
416.37985229492187
 20
253.81622314453125
 30
0.0
 10
414.31246948242187
 20
256.33206176757812
 30
0.0
 10
412.19033813476563
 20
258.78753662109375
 30
0.0
 10
410.01516723632812
 20
261.18048095703125
 30
0.0
 10
407.78750610351562
 20
263.50863647460937
 30
0.0
 10
405.51235961914062
 20
265.77459716796875
 30
0.0
 10
403.18618774414062
 20
267.97357177734375
 30
0.0
 10
400.81430053710937
 20
270.1116943359375
 30
0.0
 10
398.39724731445312
 20
272.18310546875
 30
0.0
 10
395.93368530273437
 20
274.190185546875
 30
0.0
 10
393.43026733398437
 20
276.13092041015625
 30
0.0
 10
390.88388061523437
 20
278.00665283203125
 30
0.0
 10
388.29647827148437
 20
279.81805419921875
 30
0.0
 10
385.67184448242187
 20
281.55908203125
 30
0.0
 10
383.00625610351562
 20
283.23590087890625
 30
0.0
 10
380.30789184570312
 20
284.8447265625
 30
0.0
 10
380.01199340820312
 20
285.01153564453125
 30
0.0
 10
380.00149536132812
 20
285.00555419921875
 30
0.0
 10
377.11727905273438
 20
283.29129028320312
 30
0.0
 10
374.29281616210937
 20
281.5133056640625
 30
0.0
 10
371.52902221679687
 20
279.67523193359375
 30
0.0
 10
368.82705688476562
 20
277.78033447265625
 30
0.0
 10
366.18698120117187
 20
275.82308959960937
 30
0.0
 10
363.60501098632812
 20
273.80990600585937
 30
0.0
 10
361.08932495117187
 20
271.74252319335938
 30
0.0
 10
358.63375854492188
 20
269.62045288085937
 30
0.0
 10
356.24087524414062
 20
267.44512939453125
 30
0.0
 10
353.91275024414062
 20
265.21746826171875
 30
0.0
 10
351.64688110351562
 20
262.94229125976562
 30
0.0
 10
349.44784545898437
 20
260.6160888671875
 30
0.0
 10
347.30972290039062
 20
258.24435424804687
 30
0.0
 10
345.23831176757812
 20
255.82725524902344
 30
0.0
 10
343.23117065429687
 20
253.36367797851562
 30
0.0
 10
341.29037475585938
 20
250.86026000976562
 30
0.0
 10
339.41476440429687
 20
248.31390380859375
 30
0.0
 10
337.60324096679687
 20
245.72654724121094
 30
0.0
 10
335.86233520507812
 20
243.10186767578125
 30
0.0
 10
334.18545532226562
 20
240.43641662597656
 30
0.0
 10
332.57662963867187
 20
237.73786926269531
 30
0.0
 10
331.03707885742187
 20
235.00440979003906
 30
0.0
 10
329.56442260742187
 20
232.24021911621094
 30
0.0
 10
328.15878295898437
 20
229.43984985351562
 30
0.0
 10
326.82437133789062
 20
226.611083984375
 30
0.0
 10
325.55892944335937
 20
223.75291442871094
 30
0.0
 10
324.36123657226562
 20
220.86746215820312
 30
0.0
 10
323.23550415039062
 20
217.95724487304687
 30
0.0
 10
322.17758178710937
 20
215.01971435546875
 30
0.0
 10
321.19253540039062
 20
212.06089782714844
 30
0.0
 10
320.27963256835937
 20
209.07707214355469
 30
0.0
 10
319.43490600585937
 20
206.07508850097656
 30
0.0
 10
318.66543579101562
 20
203.052978515625
 30
0.0
 10
317.96426391601562
 20
200.01239013671875
 30
0.0
 10
317.33779907226562
 20
196.9573974609375
 30
0.0
 10
316.78518676757812
 20
193.88444519042969
 30
0.0
 10
316.30502319335938
 20
190.80137634277344
 30
0.0
 10
315.89956665039062
 20
187.70352172851563
 30
0.0
 10
315.56637573242187
 20
184.5955810546875
 30
0.0
 10
315.30764770507812
 20
181.47860717773437
 30
0.0
 10
315.12478637695312
 20
178.35055541992187
 30
0.0
 10
315.01809692382812
 20
175.22036743164062
 30
0.0
 10
314.98818969726562
 20
172.41848754882812
 30
0.0
 10
317.43399047851562
 20
171.04092407226562
 30
0.0
 10
320.19937133789062
 20
169.56597900390625
 30
0.0
 10
322.99856567382812
 20
168.16262817382812
 30
0.0
 10
325.82736206054687
 20
166.82818603515625
 30
0.0
 10
328.68551635742187
 20
165.56268310546875
 30
0.0
 10
331.57095336914062
 20
164.36502075195312
 30
0.0
 10
334.48233032226562
 20
163.23712158203125
 30
0.0
 10
337.41867065429687
 20
162.181396484375
 30
0.0
 10
340.37765502929687
 20
161.19625854492187
 30
0.0
 10
343.36135864257813
 20
160.28338623046875
 30
0.0
 10
346.36331176757812
 20
159.43865966796875
 30
0.0
 10
349.38668823242187
 20
158.6671142578125
 30
0.0
 10
352.42599487304687
 20
157.96792602539062
 30
0.0
 10
355.48098754882812
 20
157.34161376953125
 30
0.0
 10
358.55386352539062
 20
156.78912353515625
 30
0.0
 10
361.63717651367187
 20
156.30877685546875
 30
0.0
 10
364.73483276367188
 20
155.90335083007813
 30
0.0
 10
367.84286499023437
 20
155.5703125
 30
0.0
 10
370.95980834960937
 20
155.3115234375
 30
0.0
 10
374.08786010742187
 20
155.12857055664062
 30
0.0
 10
377.21804809570312
 20
155.0218505859375
 30
0.0
 10
380.35507202148437
 20
154.98846435546875
 30
0.0
 10
383.49649047851562
 20
155.03240966796875
 30
0.0
 10
386.64334106445312
 20
155.15185546875
 30
0.0
 10
389.78677368164062
 20
155.34738159179687
 30
0.0
 10
392.93325805664062
 20
155.62237548828125
 30
0.0
 10
396.07626342773437
 20
155.97354125976562
 30
0.0
 10
399.21456909179687
 20
156.40267944335938
 30
0.0
 10
402.35171508789062
 20
156.90914916992187
 30
0.0
 10
405.48074340820312
 20
157.49447631835937
 30
0.0
 10
408.60385131835937
 20
158.16021728515625
 30
0.0
 10
411.71780395507812
 20
158.901611328125
 30
0.0
 10
414.82107543945312
 20
159.72628784179687
 30
0.0
 10
417.91445922851562
 20
160.62881469726562
 30
0.0
 10
420.99472045898437
 20
161.61334228515625
 30
0.0
 10
424.06021118164062
 20
162.67886352539062
 30
0.0
 10
427.10848999023437
 20
163.82394409179687
 30
0.0
 10
430.14291381835937
 20
165.05328369140625
 30
0.0
 10
433.15786743164062
 20
166.36111450195312
 30
0.0
 10
436.15005493164063
 20
167.75369262695312
 30
0.0
 10
439.12368774414062
 20
169.22808837890625
 30
0.0
 10
442.07559204101562
 20
170.78518676757812
 30
0.0
 10
445.00241088867187
 20
172.42584228515625
 30
0.0
 10
445.00808715820312
 20
172.42910766601562
 30
0.0
 10
445.01181030273437
 20
172.77468872070312
 30
0.0
 10
444.96755981445312
 20
175.91610717773437
 30
0.0
 10
444.84939575195312
 20
179.06082153320312
 30
0.0
 10
444.65286254882812
 20
182.20626831054687
 30
0.0
 10
444.37893676757812
 20
185.35069274902344
 30
0.0
 10
444.02792358398437
 20
188.49366760253906
 30
0.0
 10
443.59750366210937
 20
191.63427734375
 30
0.0
 10
443.09231567382812
 20
194.76921081542969
 30
0.0
 10
442.50558471679687
 20
197.90034484863281
 30
0.0
 10
441.84115600585937
 20
201.02131652832031
 30
0.0
 10
441.09854125976562
 20
204.13740539550781
 30
0.0
 10
440.27395629882812
 20
207.24081420898437
 30
0.0
 10
439.37142944335937
 20
210.33395385742187
 30
0.0
 10
438.38803100585937
 20
213.41226196289062
 30
0.0
 10
437.32254028320312
 20
216.47776794433594
 30
0.0
 10
436.17623901367187
 20
219.52821350097656
 30
0.0
 10
434.94808959960937
 20
222.56034851074219
 30
0.0
 10
433.64035034179687
 20
225.57537841796875
 30
0.0
 10
432.24777221679687
 20
228.56748962402344
 30
0.0
 10
430.77316284179687
 20
231.54124450683594
 30
0.0
 10
429.21633911132812
 20
234.49311828613281
 30
0.0
 10
427.57553100585937
 20
237.41993713378906
 30
0.0
 10
425.86129760742187
 20
240.30415344238281
 30
0.0
  0
LWPOLYLINE
  5
4F
100
AcDbEntity
  8
0
 62
-1
420
0
370
1
 48
1.0
  6
CONTINUOUS
100
AcDbPolyline
 90
53
 70
0
 10
321.72247314453125
 20
174.22499084472656
 30
0.0
 10
322.00997924804687
 20
174.4324951171875
 30
0.0
 10
322.24249267578125
 20
174.68498229980469
 30
0.0
 10
322.41998291015625
 20
174.97248840332031
 30
0.0
 10
322.4849853515625
 20
175.12748718261719
 30
0.0
 10
322.5374755859375
 20
175.28749084472656
 30
0.0
 10
322.57247924804687
 20
175.44998168945312
 30
0.0
 10
322.59246826171875
 20
175.61749267578125
 30
0.0
 10
322.594970703125
 20
175.78749084472656
 30
0.0
 10
322.58248901367187
 20
175.95498657226562
 30
0.0
 10
322.55499267578125
 20
176.12498474121094
 30
0.0
 10
322.50747680664062
 20
176.29249572753906
 30
0.0
 10
322.44497680664062
 20
176.45498657226562
 30
0.0
 10
322.36248779296875
 20
176.614990234375
 30
0.0
 10
322.15496826171875
 20
176.90248107910156
 30
0.0
 10
321.9024658203125
 20
177.13499450683594
 30
0.0
 10
321.614990234375
 20
177.31248474121094
 30
0.0
 10
321.45999145507812
 20
177.37748718261719
 30
0.0
 10
321.29998779296875
 20
177.42999267578125
 30
0.0
 10
321.13497924804687
 20
177.46498107910156
 30
0.0
 10
320.96746826171875
 20
177.4849853515625
 30
0.0
 10
320.79998779296875
 20
177.48748779296875
 30
0.0
 10
320.62997436523437
 20
177.47499084472656
 30
0.0
 10
320.46246337890625
 20
177.44749450683594
 30
0.0
 10
320.29498291015625
 20
177.39999389648437
 30
0.0
 10
320.13247680664062
 20
177.33749389648437
 30
0.0
 10
319.97247314453125
 20
177.25498962402344
 30
0.0
 10
319.68496704101562
 20
177.0474853515625
 30
0.0
 10
319.44998168945312
 20
176.79498291015625
 30
0.0
 10
319.27496337890625
 20
176.50749206542969
 30
0.0
 10
319.20748901367187
 20
176.35249328613281
 30
0.0
 10
319.157470703125
 20
176.19248962402344
 30
0.0
 10
319.11996459960937
 20
176.02748107910156
 30
0.0
 10
319.0999755859375
 20
175.8599853515625
 30
0.0
 10
319.09747314453125
 20
175.69248962402344
 30
0.0
 10
319.1099853515625
 20
175.52249145507812
 30
0.0
 10
319.13998413085937
 20
175.35499572753906
 30
0.0
 10
319.18746948242187
 20
175.18748474121094
 30
0.0
 10
319.24996948242187
 20
175.02499389648437
 30
0.0
 10
319.33248901367187
 20
174.864990234375
 30
0.0
 10
319.53997802734375
 20
174.57748413085937
 30
0.0
 10
319.79248046875
 20
174.34248352050781
 30
0.0
 10
320.07998657226562
 20
174.16749572753906
 30
0.0
 10
320.2349853515625
 20
174.09999084472656
 30
0.0
 10
320.39498901367187
 20
174.04998779296875
 30
0.0
 10
320.55746459960937
 20
174.01248168945312
 30
0.0
 10
320.7249755859375
 20
173.99249267578125
 30
0.0
 10
320.89498901367187
 20
173.989990234375
 30
0.0
 10
321.06246948242187
 20
174.00248718261719
 30
0.0
 10
321.23248291015625
 20
174.03248596191406
 30
0.0
 10
321.39996337890625
 20
174.07998657226562
 30
0.0
 10
321.56246948242187
 20
174.14248657226562
 30
0.0
 10
321.72247314453125
 20
174.22499084472656
 30
0.0
  0
LWPOLYLINE
  5
50
100
AcDbEntity
  8
0
 62
-1
420
0
370
1
 48
1.0
  6
CONTINUOUS
100
AcDbPolyline
 90
53
 70
0
 10
440.01748657226562
 20
174.24998474121094
 30
0.0
 10
440.30496215820312
 20
174.45748901367187
 30
0.0
 10
440.53997802734375
 20
174.70999145507812
 30
0.0
 10
440.7149658203125
 20
174.99748229980469
 30
0.0
 10
440.782470703125
 20
175.15248107910156
 30
0.0
 10
440.83248901367187
 20
175.31248474121094
 30
0.0
 10
440.86996459960937
 20
175.47499084472656
 30
0.0
 10
440.88998413085937
 20
175.64248657226562
 30
0.0
 10
440.89248657226562
 20
175.81248474121094
 30
0.0
 10
440.87997436523437
 20
175.97999572753906
 30
0.0
 10
440.8499755859375
 20
176.14999389648437
 30
0.0
 10
440.80245971679687
 20
176.31748962402344
 30
0.0
 10
440.73995971679687
 20
176.47999572753906
 30
0.0
 10
440.657470703125
 20
176.63998413085937
 30
0.0
 10
440.44998168945312
 20
176.927490234375
 30
0.0
 10
440.19747924804687
 20
177.16249084472656
 30
0.0
 10
439.90997314453125
 20
177.33749389648437
 30
0.0
 10
439.75497436523437
 20
177.40498352050781
 30
0.0
 10
439.594970703125
 20
177.45498657226562
 30
0.0
 10
439.43246459960937
 20
177.49249267578125
 30
0.0
 10
439.26498413085937
 20
177.51248168945312
 30
0.0
 10
439.094970703125
 20
177.51498413085937
 30
0.0
 10
438.92745971679687
 20
177.50248718261719
 30
0.0
 10
438.75747680664062
 20
177.47248840332031
 30
0.0
 10
438.5899658203125
 20
177.42498779296875
 30
0.0
 10
438.42745971679687
 20
177.36248779296875
 30
0.0
 10
438.26748657226562
 20
177.27998352050781
 30
0.0
 10
437.97998046875
 20
177.07249450683594
 30
0.0
 10
437.74746704101562
 20
176.81999206542969
 30
0.0
 10
437.56997680664062
 20
176.53248596191406
 30
0.0
 10
437.50247192382812
 20
176.37748718261719
 30
0.0
 10
437.45248413085937
 20
176.21748352050781
 30
0.0
 10
437.41748046875
 20
176.05499267578125
 30
0.0
 10
437.3974609375
 20
175.88748168945312
 30
0.0
 10
437.39248657226562
 20
175.71748352050781
 30
0.0
 10
437.40496826171875
 20
175.54998779296875
 30
0.0
 10
437.43496704101562
 20
175.37998962402344
 30
0.0
 10
437.48248291015625
 20
175.21249389648437
 30
0.0
 10
437.54498291015625
 20
175.04998779296875
 30
0.0
 10
437.62747192382812
 20
174.88998413085937
 30
0.0
 10
437.8349609375
 20
174.60249328613281
 30
0.0
 10
438.08746337890625
 20
174.3699951171875
 30
0.0
 10
438.37496948242187
 20
174.19248962402344
 30
0.0
 10
438.52996826171875
 20
174.12748718261719
 30
0.0
 10
438.68997192382812
 20
174.07498168945312
 30
0.0
 10
438.85247802734375
 20
174.03999328613281
 30
0.0
 10
439.01998901367187
 20
174.01998901367187
 30
0.0
 10
439.18997192382812
 20
174.01748657226562
 30
0.0
 10
439.35748291015625
 20
174.02998352050781
 30
0.0
 10
439.5274658203125
 20
174.0574951171875
 30
0.0
 10
439.69497680664062
 20
174.10499572753906
 30
0.0
 10
439.85748291015625
 20
174.16749572753906
 30
0.0
 10
440.01748657226562
 20
174.24998474121094
 30
0.0
  0
LWPOLYLINE
  5
51
100
AcDbEntity
  8
0
 62
-1
420
0
370
1
 48
1.0
  6
CONTINUOUS
100
AcDbPolyline
 90
49
 70
0
 10
378.24996948242187
 20
278.24249267578125
 30
0.0
 10
378.25997924804687
 20
278.06246948242187
 30
0.0
 10
378.28497314453125
 20
277.88998413085937
 30
0.0
 10
378.32748413085937
 20
277.72247314453125
 30
0.0
 10
378.38748168945312
 20
277.55996704101562
 30
0.0
 10
378.5474853515625
 20
277.26248168945312
 30
0.0
 10
378.76248168945312
 20
277.00497436523437
 30
0.0
 10
379.01998901367187
 20
276.78997802734375
 30
0.0
 10
379.31747436523437
 20
276.62997436523437
 30
0.0
 10
379.47998046875
 20
276.56997680664062
 30
0.0
 10
379.64749145507812
 20
276.5274658203125
 30
0.0
 10
379.81997680664062
 20
276.50247192382813
 30
0.0
 10
379.99996948242187
 20
276.49249267578125
 30
0.0
 10
380.177490234375
 20
276.50247192382813
 30
0.0
 10
380.35247802734375
 20
276.5274658203125
 30
0.0
 10
380.51998901367187
 20
276.56997680664062
 30
0.0
 10
380.67996215820312
 20
276.62997436523437
 30
0.0
 10
380.97747802734375
 20
276.78997802734375
 30
0.0
 10
381.23748779296875
 20
277.00497436523437
 30
0.0
 10
381.44998168945312
 20
277.26248168945312
 30
0.0
 10
381.61248779296875
 20
277.55996704101562
 30
0.0
 10
381.66998291015625
 20
277.72247314453125
 30
0.0
 10
381.7149658203125
 20
277.88998413085937
 30
0.0
 10
381.739990234375
 20
278.06246948242187
 30
0.0
 10
381.74996948242187
 20
278.24249267578125
 30
0.0
 10
381.739990234375
 20
278.41998291015625
 30
0.0
 10
381.7149658203125
 20
278.594970703125
 30
0.0
 10
381.66998291015625
 20
278.76248168945312
 30
0.0
 10
381.61248779296875
 20
278.9224853515625
 30
0.0
 10
381.44998168945312
 20
279.219970703125
 30
0.0
 10
381.23748779296875
 20
279.47998046875
 30
0.0
 10
380.97747802734375
 20
279.69247436523437
 30
0.0
 10
380.67996215820312
 20
279.85498046875
 30
0.0
 10
380.51998901367187
 20
279.9124755859375
 30
0.0
 10
380.35247802734375
 20
279.95748901367187
 30
0.0
 10
380.177490234375
 20
279.98248291015625
 30
0.0
 10
379.99996948242187
 20
279.99249267578125
 30
0.0
 10
379.81997680664062
 20
279.98248291015625
 30
0.0
 10
379.64749145507812
 20
279.95748901367187
 30
0.0
 10
379.47998046875
 20
279.9124755859375
 30
0.0
 10
379.31747436523437
 20
279.85498046875
 30
0.0
 10
379.01998901367187
 20
279.69247436523437
 30
0.0
 10
378.76248168945312
 20
279.47998046875
 30
0.0
 10
378.5474853515625
 20
279.219970703125
 30
0.0
 10
378.38748168945312
 20
278.9224853515625
 30
0.0
 10
378.32748413085937
 20
278.76248168945312
 30
0.0
 10
378.28497314453125
 20
278.594970703125
 30
0.0
 10
378.25997924804687
 20
278.41998291015625
 30
0.0
 10
378.24996948242187
 20
278.24249267578125
 30
0.0
  0
LWPOLYLINE
  5
52
100
AcDbEntity
  8
0
 62
-1
420
0
370
1
 48
1.0
  6
CONTINUOUS
100
AcDbPolyline
 90
74
 70
0
 10
374.79782104492188
 20
209.88554382324219
 30
0.0
 10
374.80429077148437
 20
209.61904907226562
 30
0.0
 10
374.82376098632812
 20
209.35472106933594
 30
0.0
 10
374.90396118164062
 20
208.83688354492188
 30
0.0
 10
375.03176879882812
 20
208.33857727050781
 30
0.0
 10
375.20724487304687
 20
207.86189270019531
 30
0.0
 10
375.42611694335937
 20
207.40689086914062
 30
0.0
 10
375.68606567382812
 20
206.9779052734375
 30
0.0
 10
375.98513793945312
 20
206.57920837402344
 30
0.0
 10
376.32095336914062
 20
206.20872497558594
 30
0.0
 10
376.68930053710937
 20
205.87290954589844
 30
0.0
 10
377.09005737304687
 20
205.57389831542969
 30
0.0
 10
377.51913452148437
 20
205.31388854980469
 30
0.0
 10
377.97409057617187
 20
205.09504699707031
 30
0.0
 10
378.45077514648437
 20
204.91957092285156
 30
0.0
 10
378.94912719726562
 20
204.79171752929687
 30
0.0
 10
379.46694946289062
 20
204.7115478515625
 30
0.0
 10
379.72909545898437
 20
204.69206237792969
 30
0.0
 10
379.99777221679687
 20
204.685546875
 30
0.0
 10
380.26431274414062
 20
204.69206237792969
 30
0.0
 10
380.52859497070312
 20
204.7115478515625
 30
0.0
 10
381.04641723632812
 20
204.79171752929687
 30
0.0
 10
381.54476928710937
 20
204.91957092285156
 30
0.0
 10
382.02139282226562
 20
205.09504699707031
 30
0.0
 10
382.47647094726562
 20
205.31388854980469
 30
0.0
 10
382.90542602539062
 20
205.57389831542969
 30
0.0
 10
383.30410766601562
 20
205.87290954589844
 30
0.0
 10
383.67459106445312
 20
206.20872497558594
 30
0.0
 10
384.01046752929687
 20
206.57920837402344
 30
0.0
 10
384.30941772460937
 20
206.9779052734375
 30
0.0
 10
384.56942749023437
 20
207.40689086914062
 30
0.0
 10
384.78823852539062
 20
207.86189270019531
 30
0.0
 10
384.96377563476562
 20
208.33857727050781
 30
0.0
 10
385.09164428710937
 20
208.83688354492188
 30
0.0
 10
385.16958618164062
 20
209.35255432128906
 30
0.0
 10
385.19125366210937
 20
209.61688232421875
 30
0.0
 10
385.19778442382812
 20
209.88554382324219
 30
0.0
 10
385.19125366210937
 20
210.15422058105469
 30
0.0
 10
385.17178344726562
 20
210.41639709472656
 30
0.0
 10
385.09164428710937
 20
210.93423461914062
 30
0.0
 10
384.96377563476562
 20
211.43255615234375
 30
0.0
 10
384.78823852539062
 20
211.90924072265625
 30
0.0
 10
384.56942749023437
 20
212.36422729492188
 30
0.0
 10
384.30941772460937
 20
212.79322814941406
 30
0.0
 10
384.01046752929687
 20
213.19404602050781
 30
0.0
 10
383.67459106445312
 20
213.56240844726562
 30
0.0
 10
383.30410766601562
 20
213.89822387695312
 30
0.0
 10
382.90542602539062
 20
214.19721984863281
 30
0.0
 10
382.47647094726562
 20
214.45722961425781
 30
0.0
 10
382.02139282226562
 20
214.67607116699219
 30
0.0
 10
381.54257202148437
 20
214.8515625
 30
0.0
 10
381.04428100585937
 20
214.97938537597656
 30
0.0
 10
380.52859497070312
 20
215.05955505371094
 30
0.0
 10
380.26431274414062
 20
215.07907104492187
 30
0.0
 10
379.99777221679687
 20
215.08554077148437
 30
0.0
 10
379.72909545898437
 20
215.07907104492187
 30
0.0
 10
379.46694946289062
 20
215.05955505371094
 30
0.0
 10
378.94912719726562
 20
214.97938537597656
 30
0.0
 10
378.45077514648437
 20
214.8515625
 30
0.0
 10
377.97409057617187
 20
214.67607116699219
 30
0.0
 10
377.51913452148437
 20
214.45722961425781
 30
0.0
 10
377.09005737304687
 20
214.19721984863281
 30
0.0
 10
376.68930053710937
 20
213.89822387695312
 30
0.0
 10
376.32095336914062
 20
213.56240844726562
 30
0.0
 10
375.98513793945312
 20
213.19404602050781
 30
0.0
 10
375.68606567382812
 20
212.79322814941406
 30
0.0
 10
375.42611694335937
 20
212.36422729492188
 30
0.0
 10
375.20724487304687
 20
211.90924072265625
 30
0.0
 10
375.03176879882812
 20
211.43255615234375
 30
0.0
 10
374.90396118164062
 20
210.93423461914062
 30
0.0
 10
374.82376098632812
 20
210.41639709472656
 30
0.0
 10
374.80429077148437
 20
210.15422058105469
 30
0.0
 10
374.79782104492188
 20
209.88554382324219
 30
0.0
 10
374.79782104492188
 20
209.88554382324219
 30
0.0
  0
LWPOLYLINE
  5
53
100
AcDbEntity
  8
0
 62
-1
420
0
370
1
 48
1.0
  6
CONTINUOUS
100
AcDbPolyline
 90
34
 70
0
 10
375.09536743164063
 20
217.13804626464844
 30
0.0
 10
375.11288452148437
 20
216.95555114746094
 30
0.0
 10
375.16537475585937
 20
216.78807067871094
 30
0.0
 10
375.24789428710937
 20
216.63554382324219
 30
0.0
 10
375.35787963867187
 20
216.50056457519531
 30
0.0
 10
375.49288940429687
 20
216.39054870605469
 30
0.0
 10
375.64535522460937
 20
216.30805969238281
 30
0.0
 10
375.81289672851562
 20
216.25556945800781
 30
0.0
 10
375.99539184570312
 20
216.23805236816406
 30
0.0
 10
376.17788696289062
 20
216.25556945800781
 30
0.0
 10
376.34536743164062
 20
216.30805969238281
 30
0.0
 10
376.49789428710937
 20
216.39054870605469
 30
0.0
 10
376.63290405273437
 20
216.50056457519531
 30
0.0
 10
376.74288940429687
 20
216.63554382324219
 30
0.0
 10
376.82540893554687
 20
216.78807067871094
 30
0.0
 10
376.87789916992187
 20
216.95555114746094
 30
0.0
 10
376.89535522460937
 20
217.13804626464844
 30
0.0
 10
376.87789916992187
 20
217.32054138183594
 30
0.0
 10
376.82540893554687
 20
217.48805236816406
 30
0.0
 10
376.74288940429687
 20
217.64054870605469
 30
0.0
 10
376.63290405273437
 20
217.77555847167969
 30
0.0
 10
376.49789428710937
 20
217.88554382324219
 30
0.0
 10
376.34536743164062
 20
217.96806335449219
 30
0.0
 10
376.17788696289062
 20
218.02055358886719
 30
0.0
 10
375.99539184570312
 20
218.03807067871094
 30
0.0
 10
375.81289672851562
 20
218.02055358886719
 30
0.0
 10
375.64535522460937
 20
217.96806335449219
 30
0.0
 10
375.49288940429687
 20
217.88554382324219
 30
0.0
 10
375.35787963867187
 20
217.77555847167969
 30
0.0
 10
375.24789428710937
 20
217.64054870605469
 30
0.0
 10
375.16537475585937
 20
217.48805236816406
 30
0.0
 10
375.11288452148437
 20
217.32054138183594
 30
0.0
 10
375.09536743164063
 20
217.13804626464844
 30
0.0
 10
375.09536743164063
 20
217.13804626464844
 30
0.0
  0
LWPOLYLINE
  5
54
100
AcDbEntity
  8
0
 62
-1
420
0
370
1
 48
1.0
  6
CONTINUOUS
100
AcDbPolyline
 90
34
 70
0
 10
383.09536743164062
 20
217.13804626464844
 30
0.0
 10
383.11288452148437
 20
216.95555114746094
 30
0.0
 10
383.16537475585937
 20
216.78807067871094
 30
0.0
 10
383.24789428710937
 20
216.63554382324219
 30
0.0
 10
383.35787963867187
 20
216.50056457519531
 30
0.0
 10
383.49288940429688
 20
216.39054870605469
 30
0.0
 10
383.64535522460937
 20
216.30805969238281
 30
0.0
 10
383.81289672851562
 20
216.25556945800781
 30
0.0
 10
383.99539184570312
 20
216.23805236816406
 30
0.0
 10
384.17788696289062
 20
216.25556945800781
 30
0.0
 10
384.34536743164062
 20
216.30805969238281
 30
0.0
 10
384.49789428710937
 20
216.39054870605469
 30
0.0
 10
384.63290405273437
 20
216.50056457519531
 30
0.0
 10
384.74288940429687
 20
216.63554382324219
 30
0.0
 10
384.82540893554687
 20
216.78807067871094
 30
0.0
 10
384.87789916992187
 20
216.95555114746094
 30
0.0
 10
384.89535522460937
 20
217.13804626464844
 30
0.0
 10
384.87789916992187
 20
217.32054138183594
 30
0.0
 10
384.82540893554687
 20
217.48805236816406
 30
0.0
 10
384.74288940429687
 20
217.64054870605469
 30
0.0
 10
384.63290405273437
 20
217.77555847167969
 30
0.0
 10
384.49789428710937
 20
217.88554382324219
 30
0.0
 10
384.34536743164062
 20
217.96806335449219
 30
0.0
 10
384.17788696289062
 20
218.02055358886719
 30
0.0
 10
383.99539184570312
 20
218.03807067871094
 30
0.0
 10
383.81289672851562
 20
218.02055358886719
 30
0.0
 10
383.64535522460937
 20
217.96806335449219
 30
0.0
 10
383.49288940429688
 20
217.88554382324219
 30
0.0
 10
383.35787963867187
 20
217.77555847167969
 30
0.0
 10
383.24789428710937
 20
217.64054870605469
 30
0.0
 10
383.16537475585937
 20
217.48805236816406
 30
0.0
 10
383.11288452148437
 20
217.32054138183594
 30
0.0
 10
383.09536743164062
 20
217.13804626464844
 30
0.0
 10
383.09536743164062
 20
217.13804626464844
 30
0.0
  0
LWPOLYLINE
  5
55
100
AcDbEntity
  8
0
 62
-1
420
0
370
1
 48
1.0
  6
CONTINUOUS
100
AcDbPolyline
 90
34
 70
0
 10
375.09786987304687
 20
202.64305114746094
 30
0.0
 10
375.11538696289062
 20
202.46055603027344
 30
0.0
 10
375.16787719726562
 20
202.29304504394531
 30
0.0
 10
375.25039672851562
 20
202.14054870605469
 30
0.0
 10
375.36038208007812
 20
202.00556945800781
 30
0.0
 10
375.49288940429687
 20
201.89555358886719
 30
0.0
 10
375.64535522460937
 20
201.81306457519531
 30
0.0
 10
375.81539916992187
 20
201.76054382324219
 30
0.0
 10
375.99539184570312
 20
201.74305725097656
 30
0.0
 10
376.17788696289062
 20
201.76054382324219
 30
0.0
 10
376.34536743164062
 20
201.81306457519531
 30
0.0
 10
376.49789428710937
 20
201.89555358886719
 30
0.0
 10
376.63290405273437
 20
202.00556945800781
 30
0.0
 10
376.74288940429687
 20
202.14054870605469
 30
0.0
 10
376.82540893554687
 20
202.29304504394531
 30
0.0
 10
376.87789916992187
 20
202.46055603027344
 30
0.0
 10
376.89535522460937
 20
202.64305114746094
 30
0.0
 10
376.87789916992187
 20
202.82304382324219
 30
0.0
 10
376.82540893554687
 20
202.99305725097656
 30
0.0
 10
376.74288940429687
 20
203.14555358886719
 30
0.0
 10
376.63290405273437
 20
203.27806091308594
 30
0.0
 10
376.49789428710937
 20
203.38804626464844
 30
0.0
 10
376.34536743164062
 20
203.47306823730469
 30
0.0
 10
376.17788696289062
 20
203.52555847167969
 30
0.0
 10
375.99539184570312
 20
203.54304504394531
 30
0.0
 10
375.81539916992187
 20
203.52555847167969
 30
0.0
 10
375.64535522460937
 20
203.47306823730469
 30
0.0
 10
375.49288940429687
 20
203.38804626464844
 30
0.0
 10
375.36038208007812
 20
203.27806091308594
 30
0.0
 10
375.25039672851562
 20
203.14555358886719
 30
0.0
 10
375.16787719726562
 20
202.99305725097656
 30
0.0
 10
375.11538696289062
 20
202.82304382324219
 30
0.0
 10
375.09786987304687
 20
202.64305114746094
 30
0.0
 10
375.09786987304687
 20
202.64305114746094
 30
0.0
  0
LWPOLYLINE
  5
56
100
AcDbEntity
  8
0
 62
-1
420
0
370
1
 48
1.0
  6
CONTINUOUS
100
AcDbPolyline
 90
34
 70
0
 10
383.09286499023437
 20
202.64054870605469
 30
0.0
 10
383.11038208007812
 20
202.45805358886719
 30
0.0
 10
383.16287231445312
 20
202.29054260253906
 30
0.0
 10
383.24539184570312
 20
202.13804626464844
 30
0.0
 10
383.35537719726562
 20
202.00306701660156
 30
0.0
 10
383.49038696289062
 20
201.89305114746094
 30
0.0
 10
383.64291381835938
 20
201.81056213378906
 30
0.0
 10
383.81039428710937
 20
201.75804138183594
 30
0.0
 10
383.99288940429687
 20
201.74055480957031
 30
0.0
 10
384.17538452148437
 20
201.75804138183594
 30
0.0
 10
384.34286499023437
 20
201.81056213378906
 30
0.0
 10
384.49539184570312
 20
201.89305114746094
 30
0.0
 10
384.63040161132812
 20
202.00306701660156
 30
0.0
 10
384.74038696289062
 20
202.13804626464844
 30
0.0
 10
384.82290649414062
 20
202.29054260253906
 30
0.0
 10
384.87539672851562
 20
202.45805358886719
 30
0.0
 10
384.89291381835937
 20
202.64054870605469
 30
0.0
 10
384.87539672851562
 20
202.82304382324219
 30
0.0
 10
384.82290649414062
 20
202.99055480957031
 30
0.0
 10
384.74038696289062
 20
203.14305114746094
 30
0.0
 10
384.63040161132812
 20
203.27806091308594
 30
0.0
 10
384.49539184570312
 20
203.38804626464844
 30
0.0
 10
384.34286499023437
 20
203.47056579589844
 30
0.0
 10
384.17538452148437
 20
203.52305603027344
 30
0.0
 10
383.99288940429687
 20
203.54054260253906
 30
0.0
 10
383.81039428710937
 20
203.52305603027344
 30
0.0
 10
383.64291381835938
 20
203.47056579589844
 30
0.0
 10
383.49038696289062
 20
203.38804626464844
 30
0.0
 10
383.35537719726562
 20
203.27806091308594
 30
0.0
 10
383.24539184570312
 20
203.14305114746094
 30
0.0
 10
383.16287231445312
 20
202.99055480957031
 30
0.0
 10
383.11038208007812
 20
202.82304382324219
 30
0.0
 10
383.09286499023437
 20
202.64054870605469
 30
0.0
 10
383.09286499023437
 20
202.64054870605469
 30
0.0
  0
LWPOLYLINE
  5
57
100
AcDbEntity
  8
0
 62
-1
420
0
370
1
 48
1.0
  6
CONTINUOUS
100
AcDbPolyline
 90
72
 70
0
 10
382.28268432617187
 20
165.57400512695312
 30
0.0
 10
384.81314086914062
 20
165.66201782226562
 30
0.0
 10
387.33786010742187
 20
165.80813598632812
 30
0.0
 10
389.85678100585937
 20
166.0179443359375
 30
0.0
 10
392.36636352539062
 20
166.28494262695312
 30
0.0
 10
394.86898803710937
 20
166.61334228515625
 30
0.0
 10
397.36117553710937
 20
167.00262451171875
 30
0.0
 10
399.84140014648437
 20
167.44998168945313
 30
0.0
 10
402.31015014648437
 20
167.95587158203125
 30
0.0
 10
404.76461791992187
 20
168.521240234375
 30
0.0
 10
407.20584106445312
 20
169.14276123046875
 30
0.0
 10
409.63082885742187
 20
169.82522583007812
 30
0.0
 10
412.03945922851563
 20
170.562744140625
 30
0.0
 10
414.43020629882813
 20
171.35897827148437
 30
0.0
 10
416.80203247070312
 20
172.21176147460937
 30
0.0
 10
419.15475463867187
 20
173.12088012695312
 30
0.0
 10
421.48641967773437
 20
174.08773803710937
 30
0.0
 10
423.79318237304687
 20
175.1112060546875
 30
0.0
 10
426.07955932617187
 20
176.18890380859375
 30
0.0
 10
427.09616088867187
 20
176.70004272460937
 30
0.0
 10
417.07473754882812
 20
182.48590087890625
 30
0.0
 10
416.60018920898437
 20
182.25067138671875
 30
0.0
 10
414.64199829101563
 20
181.34249877929687
 30
0.0
 10
412.67178344726562
 20
180.48492431640625
 30
0.0
 10
410.68704223632812
 20
179.68258666992187
 30
0.0
 10
408.69259643554687
 20
178.93222045898437
 30
0.0
 10
406.68905639648437
 20
178.23748779296875
 30
0.0
 10
404.67349243164062
 20
177.59335327148437
 30
0.0
 10
402.65371704101562
 20
177.00173950195312
 30
0.0
 10
400.62295532226562
 20
176.46426391601562
 30
0.0
 10
398.58566284179687
 20
175.97793579101563
 30
0.0
 10
396.54537963867187
 20
175.54183959960937
 30
0.0
 10
394.49942016601562
 20
175.16033935546875
 30
0.0
 10
392.44845581054687
 20
174.82781982421875
 30
0.0
 10
390.39535522460937
 20
174.5489501953125
 30
0.0
 10
388.33920288085937
 20
174.32012939453125
 30
0.0
 10
386.28146362304687
 20
174.13946533203125
 30
0.0
 10
384.22482299804687
 20
174.01162719726562
 30
0.0
 10
382.16867065429687
 20
173.9329833984375
 30
0.0
 10
380.11502075195312
 20
173.9049072265625
 30
0.0
 10
378.06521606445312
 20
173.92532348632812
 30
0.0
 10
376.01467895507812
 20
173.9970703125
 30
0.0
 10
373.97128295898437
 20
174.11636352539062
 30
0.0
 10
369.90023803710937
 20
174.5025634765625
 30
0.0
 10
365.85910034179687
 20
175.08209228515625
 30
0.0
 10
361.85110473632812
 20
175.85406494140625
 30
0.0
 10
357.88662719726562
 20
176.815673828125
 30
0.0
 10
353.97378540039062
 20
177.96298217773437
 30
0.0
 10
350.11904907226562
 20
179.29965209960937
 30
0.0
 10
346.32827758789062
 20
180.82046508789063
 30
0.0
 10
342.87997436523437
 20
182.39779663085937
 30
0.0
 10
332.99868774414062
 20
176.69284057617187
 30
0.0
 10
334.68264770507812
 20
175.85879516601562
 30
0.0
 10
337.10037231445312
 20
174.73269653320312
 30
0.0
 10
339.53628540039062
 20
173.6749267578125
 30
0.0
 10
341.98678588867187
 20
172.68447875976562
 30
0.0
 10
344.45053100585937
 20
171.759033203125
 30
0.0
 10
346.92550659179687
 20
170.90017700195312
 30
0.0
 10
349.41232299804687
 20
170.10394287109375
 30
0.0
 10
351.91024780273437
 20
169.37429809570312
 30
0.0
 10
354.41781616210937
 20
168.70849609375
 30
0.0
 10
356.93295288085937
 20
168.10821533203125
 30
0.0
 10
359.45413208007812
 20
167.57107543945312
 30
0.0
 10
361.98287963867187
 20
167.09942626953125
 30
0.0
 10
364.51632690429687
 20
166.68869018554687
 30
0.0
 10
367.05160522460937
 20
166.34356689453125
 30
0.0
 10
369.59146118164062
 20
166.05941772460937
 30
0.0
 10
372.13162231445312
 20
165.83868408203125
 30
0.0
 10
374.67092895507812
 20
165.67926025390625
 30
0.0
 10
377.21035766601562
 20
165.58334350585937
 30
0.0
 10
379.74880981445312
 20
165.54840087890625
 30
0.0
 10
382.28268432617187
 20
165.57400512695312
 30
0.0
  0
LWPOLYLINE
  5
58
100
AcDbEntity
  8
0
 62
-1
420
0
370
1
 48
1.0
  6
CONTINUOUS
100
AcDbPolyline
 90
80
 70
0
 10
432.28842163085937
 20
186.88533020019531
 30
0.0
 10
432.07852172851563
 20
189.40435791015625
 30
0.0
 10
431.81167602539062
 20
191.91387939453125
 30
0.0
 10
431.48312377929687
 20
194.41645812988281
 30
0.0
 10
431.09402465820312
 20
196.90864562988281
 30
0.0
 10
430.64657592773437
 20
199.38905334472656
 30
0.0
 10
430.14089965820312
 20
201.85755920410156
 30
0.0
 10
429.57540893554687
 20
204.31208801269531
 30
0.0
 10
428.95382690429688
 20
206.75350952148437
 30
0.0
 10
428.27139282226562
 20
209.17852783203125
 30
0.0
 10
427.53366088867187
 20
211.58692932128906
 30
0.0
 10
426.73751831054687
 20
213.97764587402344
 30
0.0
 10
425.88485717773437
 20
216.34950256347656
 30
0.0
 10
424.97561645507812
 20
218.70220947265625
 30
0.0
 10
424.00900268554687
 20
221.03388977050781
 30
0.0
 10
422.98532104492187
 20
223.34063720703125
 30
0.0
 10
421.90750122070312
 20
225.62710571289062
 30
0.0
 10
420.77163696289062
 20
227.88645935058594
 30
0.0
 10
419.58279418945312
 20
230.12193298339844
 30
0.0
 10
418.33779907226562
 20
232.3291015625
 30
0.0
 10
417.03854370117187
 20
234.51023864746094
 30
0.0
 10
415.68557739257812
 20
236.661376953125
 30
0.0
 10
414.27798461914062
 20
238.78077697753906
 30
0.0
 10
412.81674194335937
 20
240.87039184570312
 30
0.0
 10
411.30062866210937
 20
242.92776489257812
 30
0.0
 10
409.73428344726562
 20
244.95077514648437
 30
0.0
 10
408.11172485351562
 20
246.93943786621094
 30
0.0
 10
406.43887329101562
 20
248.89341735839844
 30
0.0
 10
404.71310424804687
 20
250.80833435058594
 30
0.0
 10
402.93569946289062
 20
252.68644714355469
 30
0.0
 10
401.10537719726562
 20
254.52532958984375
 30
0.0
 10
399.22445678710937
 20
256.32351684570313
 30
0.0
 10
397.29141235351562
 20
258.07913208007813
 30
0.0
 10
395.31008911132812
 20
259.79293823242187
 30
0.0
 10
393.27670288085937
 20
261.46414184570312
 30
0.0
 10
391.19381713867187
 20
263.091064453125
 30
0.0
 10
389.05990600585937
 20
264.671630859375
 30
0.0
 10
386.87588500976562
 20
266.20242309570312
 30
0.0
 10
385.29098510742187
 20
267.2574462890625
 30
0.0
 10
385.29098510742187
 20
255.67965698242187
 30
0.0
 10
385.43612670898437
 20
255.5833740234375
 30
0.0
 10
387.12673950195312
 20
254.40010070800781
 30
0.0
 10
388.79306030273437
 20
253.17396545410156
 30
0.0
 10
390.43283081054687
 20
251.90374755859375
 30
0.0
 10
392.04153442382812
 20
250.5924072265625
 30
0.0
 10
393.62155151367187
 20
249.23562622070312
 30
0.0
 10
395.17269897460938
 20
247.839111328125
 30
0.0
 10
396.69387817382812
 20
246.3992919921875
 30
0.0
 10
398.18399047851562
 20
244.91850280761719
 30
0.0
 10
399.63729858398437
 20
243.39614868164062
 30
0.0
 10
401.06082153320312
 20
241.83064270019531
 30
0.0
 10
402.44845581054687
 20
240.22714233398437
 30
0.0
 10
403.80075073242187
 20
238.58012390136719
 30
0.0
 10
405.11825561523437
 20
236.89285278320312
 30
0.0
 10
406.39578247070312
 20
235.16520690917969
 30
0.0
 10
407.63754272460937
 20
233.39947509765625
 30
0.0
 10
408.83908081054687
 20
231.59332275390625
 30
0.0
 10
410.00064086914062
 20
229.74661254882812
 30
0.0
 10
411.12179565429687
 20
227.85943603515625
 30
0.0
 10
412.19546508789063
 20
225.94467163085937
 30
0.0
 10
413.21408081054687
 20
224.01559448242187
 30
0.0
 10
414.17758178710937
 20
222.07176208496094
 30
0.0
 10
415.08578491210937
 20
220.11369323730469
 30
0.0
 10
415.94320678710937
 20
218.14341735839844
 30
0.0
 10
416.74563598632812
 20
216.15875244140625
 30
0.0
 10
417.49472045898437
 20
214.166259765625
 30
0.0
 10
418.19082641601562
 20
212.16064453125
 30
0.0
 10
418.83358764648437
 20
210.14735412597656
 30
0.0
 10
419.42648315429687
 20
208.12542724609375
 30
0.0
 10
419.96389770507812
 20
206.09445190429687
 30
0.0
 10
420.44900512695312
 20
204.05941772460937
 30
0.0
 10
420.88412475585937
 20
202.01560974121094
 30
0.0
 10
421.26785278320312
 20
199.97109985351562
 30
0.0
 10
421.60043334960937
 20
197.92010498046875
 30
0.0
 10
421.87936401367187
 20
195.86698913574219
 30
0.0
 10
422.10806274414062
 20
193.81085205078125
 30
0.0
 10
422.28738403320312
 20
191.75520324707031
 30
0.0
 10
422.29733276367187
 20
191.594970703125
 30
0.0
 10
432.35183715820312
 20
185.7900390625
 30
0.0
 10
432.28842163085937
 20
186.88533020019531
 30
0.0
  0
LWPOLYLINE
  5
59
100
AcDbEntity
  8
0
 62
-1
420
0
370
1
 48
1.0
  6
CONTINUOUS
100
AcDbPolyline
 90
71
 70
0
 10
337.72256469726562
 20
191.54452514648437
 30
0.0
 10
338.08444213867187
 20
195.35894775390625
 30
0.0
 10
338.66281127929687
 20
199.40234375
 30
0.0
 10
339.43252563476562
 20
203.40896606445312
 30
0.0
 10
340.39535522460937
 20
207.37130737304687
 30
0.0
 10
341.54489135742187
 20
211.28530883789062
 30
0.0
 10
342.88040161132812
 20
215.14228820800781
 30
0.0
 10
344.39895629882813
 20
218.93180847167969
 30
0.0
 10
346.09988403320312
 20
222.65061950683594
 30
0.0
 10
347.01852416992187
 20
224.47987365722656
 30
0.0
 10
347.98165893554687
 20
226.2916259765625
 30
0.0
 10
348.98880004882812
 20
228.07695007324219
 30
0.0
 10
350.03994750976562
 20
229.84146118164062
 30
0.0
 10
351.13607788085937
 20
231.58280944824219
 30
0.0
 10
352.27523803710937
 20
233.29995727539062
 30
0.0
 10
353.46054077148437
 20
234.99180603027344
 30
0.0
 10
354.68649291992187
 20
236.657958984375
 30
0.0
 10
355.95474243164062
 20
238.2965087890625
 30
0.0
 10
357.26828002929687
 20
239.9066162109375
 30
0.0
 10
358.62149047851562
 20
241.48751831054687
 30
0.0
 10
360.01937866210937
 20
243.0364990234375
 30
0.0
 10
361.45919799804687
 20
244.55769348144531
 30
0.0
 10
362.94003295898437
 20
246.04779052734375
 30
0.0
 10
364.46231079101562
 20
247.50106811523437
 30
0.0
 10
366.02786254882812
 20
248.92457580566406
 30
0.0
 10
367.63131713867187
 20
250.31222534179687
 30
0.0
 10
369.27841186523437
 20
251.66441345214844
 30
0.0
 10
370.96548461914062
 20
252.98202514648437
 30
0.0
 10
372.69320678710937
 20
254.25958251953125
 30
0.0
 10
374.45907592773437
 20
255.50126647949219
 30
0.0
 10
374.79104614257813
 20
255.72213745117187
 30
0.0
 10
374.79098510742187
 20
267.31478881835937
 30
0.0
 10
373.34732055664062
 20
266.355712890625
 30
0.0
 10
371.25772094726562
 20
264.89459228515625
 30
0.0
 10
369.20010375976562
 20
263.37847900390625
 30
0.0
 10
367.17727661132812
 20
261.81219482421875
 30
0.0
 10
365.18856811523437
 20
260.18954467773437
 30
0.0
 10
363.23452758789062
 20
258.51666259765625
 30
0.0
 10
361.31967163085937
 20
256.79098510742187
 30
0.0
 10
359.44149780273437
 20
255.01348876953125
 30
0.0
 10
357.60281372070312
 20
253.18319702148437
 30
0.0
 10
355.80435180664062
 20
251.30226135253906
 30
0.0
 10
354.04885864257812
 20
249.36927795410156
 30
0.0
 10
352.33499145507812
 20
247.38787841796875
 30
0.0
 10
350.66390991210937
 20
245.35472106933594
 30
0.0
 10
349.03689575195312
 20
243.27186584472656
 30
0.0
 10
347.45620727539062
 20
241.13760375976562
 30
0.0
 10
345.92550659179687
 20
238.95368957519531
 30
0.0
 10
344.44015502929687
 20
236.72236633300781
 30
0.0
 10
343.00460815429687
 20
234.44073486328125
 30
0.0
 10
341.62051391601562
 20
232.111572265625
 30
0.0
 10
340.29531860351562
 20
229.74818420410156
 30
0.0
 10
339.03738403320312
 20
227.36418151855469
 30
0.0
 10
337.84750366210937
 20
224.96223449707031
 30
0.0
 10
336.72146606445312
 20
222.5445556640625
 30
0.0
 10
335.66372680664062
 20
220.10871887207031
 30
0.0
 10
334.67343139648437
 20
217.65821838378906
 30
0.0
 10
333.74795532226562
 20
215.19418334960937
 30
0.0
 10
332.88912963867187
 20
212.71945190429688
 30
0.0
 10
332.09286499023437
 20
210.23258972167969
 30
0.0
 10
331.36312866210937
 20
207.73460388183594
 30
0.0
 10
330.69735717773437
 20
205.22711181640625
 30
0.0
 10
330.09713745117187
 20
202.71188354492187
 30
0.0
 10
329.56002807617187
 20
200.1907958984375
 30
0.0
 10
329.08834838867187
 20
197.66204833984375
 30
0.0
 10
328.67752075195312
 20
195.12841796875
 30
0.0
 10
328.33255004882812
 20
192.59327697753906
 30
0.0
 10
328.04837036132813
 20
190.05342102050781
 30
0.0
 10
327.82772827148437
 20
187.51316833496094
 30
0.0
 10
327.71817016601562
 20
185.76846313476562
 30
0.0
 10
337.72256469726562
 20
191.54452514648437
 30
0.0
  0
ENDSEC
  0
SECTION
  2
OBJECTS
  0
DICTIONARY
  5
C
100
AcDbDictionary
280
0
281
1
  3
ACAD_GROUP
350
D
  3
ACAD_LAYOUT
350
1A
  3
ACAD_MLINESTYLE
350
17
  3
ACAD_PLOTSETTINGS
350
19
  3
ACAD_PLOTSTYLENAME
350
E
  3
AcDbVariableDictionary
350
5A
  0
DICTIONARY
  5
D
100
AcDbDictionary
280
0
281
1
  0
ACDBDICTIONARYWDFLT
  5
E
100
AcDbDictionary
281
1
  3
Normal
350
F
100
AcDbDictionaryWithDefault
340
F
  0
ACDBPLACEHOLDER
  5
F
  0
DICTIONARY
  5
17
100
AcDbDictionary
280
0
281
1
  3
Standard
350
18
  0
MLINESTYLE
  5
18
100
AcDbMlineStyle
  2
STANDARD
 70
0
  3

 62
256
 51
90.0
 52
90.0
 71
2
 49
0.5
 62
256
  6
BYLAYER
 49
-0.5
 62
256
  6
BYLAYER
  0
DICTIONARY
  5
19
100
AcDbDictionary
280
0
281
1
  0
DICTIONARY
  5
1A
100
AcDbDictionary
281
1
  3
Layout1
350
1E
  3
Layout2
350
26
  3
Model
350
22
  0
LAYOUT
  5
1E
100
AcDbPlotSettings
  1

  2
none_device
  4

  6

 40
0.0
 41
0.0
 42
0.0
 43
0.0
 44
0.0
 45
0.0
 46
0.0
 47
0.0
 48
0.0
 49
0.0
140
0.0
141
0.0
142
1.0
143
1.0
 70
688
 72
0
 73
0
 74
5
  7

 75
16
147
1.0
148
0.0
149
0.0
100
AcDbLayout
  1
Layout1
 70
1
 71
1
 10
0.0
 20
0.0
 11
420.0
 21
297.0
 12
0.0
 22
0.0
 32
0.0
 14
100000000000000000000.0
 24
100000000000000000000.0
 34
100000000000000000000.0
 15
-100000000000000000000.0
 25
-100000000000000000000.0
 35
-100000000000000000000.0
146
0.0
 13
0.0
 23
0.0
 33
0.0
 16
1.0
 26
0.0
 36
0.0
 17
0.0
 27
1.0
 37
0.0
 76
0
330
1B
  0
LAYOUT
  5
22
100
AcDbPlotSettings
  1

  2
none_device
  4

  6

 40
0.0
 41
0.0
 42
0.0
 43
0.0
 44
0.0
 45
0.0
 46
0.0
 47
0.0
 48
0.0
 49
0.0
140
0.0
141
0.0
142
1.0
143
1.0
 70
1712
 72
0
 73
0
 74
0
  7

 75
0
147
1.0
148
0.0
149
0.0
100
AcDbLayout
  1
Model
 70
1
 71
0
 10
0.0
 20
0.0
 11
12.0
 21
9.0
 12
0.0
 22
0.0
 32
0.0
 14
0.0
 24
0.0
 34
0.0
 15
0.0
 25
0.0
 35
0.0
146
0.0
 13
0.0
 23
0.0
 33
0.0
 16
1.0
 26
0.0
 36
0.0
 17
0.0
 27
1.0
 37
0.0
 76
0
330
1F
  0
LAYOUT
  5
26
100
AcDbPlotSettings
  1

  2
none_device
  4

  6

 40
0.0
 41
0.0
 42
0.0
 43
0.0
 44
0.0
 45
0.0
 46
0.0
 47
0.0
 48
0.0
 49
0.0
140
0.0
141
0.0
142
1.0
143
1.0
 70
688
 72
0
 73
0
 74
5
  7

 75
16
147
1.0
148
0.0
149
0.0
100
AcDbLayout
  1
Layout2
 70
1
 71
2
 10
0.0
 20
0.0
 11
12.0
 21
9.0
 12
0.0
 22
0.0
 32
0.0
 14
0.0
 24
0.0
 34
0.0
 15
0.0
 25
0.0
 35
0.0
146
0.0
 13
0.0
 23
0.0
 33
0.0
 16
1.0
 26
0.0
 36
0.0
 17
0.0
 27
1.0
 37
0.0
 76
0
330
23
  0
DICTIONARY
  5
5A
100
AcDbDictionary
281
1
  3
DIMASSOC
350
5C
  3
HIDETEXT
350
5B
  0
DICTIONARYVAR
  5
5B
100
DictionaryVariables
280
0
  1
2
  0
DICTIONARYVAR
  5
5C
100
DictionaryVariables
280
0
  1
1
  0
ENDSEC
  0
EOF
