999
dxflib 3.17.0.0
  0
SECTION
  2
HEADER
  9
$ACADVER
  1
AC1015
  9
$HANDSEED
  5
FFFF
  9
$INSUNITS
 70
4
  9
$DIMEXE
 40
1.25
  9
$TEXTSTYLE
  7
Standard
  9
$LIMMIN
 10
0.0
 20
0.0
  0
ENDSEC
  0
SECTION
  2
TABLES
  0
TABLE
  2
VPORT
  5
8
100
AcDbSymbolTable
 70
1
  0
VPORT
  5
30
100
AcDbSymbolTableRecord
100
AcDbViewportTableRecord
  2
*Active
 70
0
 10
0.0
 20
0.0
 11
1.0
 21
1.0
 12
286.30555555555549
 22
148.5
 13
0.0
 23
0.0
 14
10.0
 24
10.0
 15
10.0
 25
10.0
 16
0.0
 26
0.0
 36
1.0
 17
0.0
 27
0.0
 37
0.0
 40
297.0
 41
1.92798353909465
 42
50.0
 43
0.0
 44
0.0
 50
0.0
 51
0.0
 71
0
 72
100
 73
1
 74
3
 75
1
 76
1
 77
0
 78
0
281
0
 65
1
110
0.0
120
0.0
130
0.0
111
1.0
121
0.0
131
0.0
112
0.0
122
1.0
132
0.0
 79
0
146
0.0
  0
ENDTAB
  0
TABLE
  2
LTYPE
  5
5
100
AcDbSymbolTable
 70
25
  0
LTYPE
  5
14
100
AcDbSymbolTableRecord
100
AcDbLinetypeTableRecord
  2
BYBLOCK
 70
0
  3

 72
65
 73
0
 40
0.0
  0
LTYPE
  5
15
100
AcDbSymbolTableRecord
100
AcDbLinetypeTableRecord
  2
BYLAYER
 70
0
  3

 72
65
 73
0
 40
0.0
  0
LTYPE
  5
16
100
AcDbSymbolTableRecord
100
AcDbLinetypeTableRecord
  2
CONTINUOUS
 70
0
  3
Solid line
 72
65
 73
0
 40
0.0
  0
LTYPE
  5
31
100
AcDbSymbolTableRecord
100
AcDbLinetypeTableRecord
  2
ACAD_ISO02W100
 70
0
  3

 72
65
 73
0
 40
0.0
  0
LTYPE
  5
32
100
AcDbSymbolTableRecord
100
AcDbLinetypeTableRecord
  2
ACAD_ISO03W100
 70
0
  3

 72
65
 73
0
 40
0.0
  0
LTYPE
  5
33
100
AcDbSymbolTableRecord
100
AcDbLinetypeTableRecord
  2
ACAD_ISO04W100
 70
0
  3

 72
65
 73
0
 40
0.0
  0
LTYPE
  5
34
100
AcDbSymbolTableRecord
100
AcDbLinetypeTableRecord
  2
ACAD_ISO05W100
 70
0
  3

 72
65
 73
0
 40
0.0
  0
LTYPE
  5
35
100
AcDbSymbolTableRecord
100
AcDbLinetypeTableRecord
  2
BORDER
 70
0
  3

 72
65
 73
0
 40
0.0
  0
LTYPE
  5
36
100
AcDbSymbolTableRecord
100
AcDbLinetypeTableRecord
  2
BORDER2
 70
0
  3

 72
65
 73
0
 40
0.0
  0
LTYPE
  5
37
100
AcDbSymbolTableRecord
100
AcDbLinetypeTableRecord
  2
BORDERX2
 70
0
  3

 72
65
 73
0
 40
0.0
  0
LTYPE
  5
38
100
AcDbSymbolTableRecord
100
AcDbLinetypeTableRecord
  2
CENTER
 70
0
  3

 72
65
 73
0
 40
0.0
  0
LTYPE
  5
39
100
AcDbSymbolTableRecord
100
AcDbLinetypeTableRecord
  2
CENTER2
 70
0
  3

 72
65
 73
0
 40
0.0
  0
LTYPE
  5
3A
100
AcDbSymbolTableRecord
100
AcDbLinetypeTableRecord
  2
CENTERX2
 70
0
  3

 72
65
 73
0
 40
0.0
  0
LTYPE
  5
3B
100
AcDbSymbolTableRecord
100
AcDbLinetypeTableRecord
  2
DASHDOT
 70
0
  3

 72
65
 73
0
 40
0.0
  0
LTYPE
  5
3C
100
AcDbSymbolTableRecord
100
AcDbLinetypeTableRecord
  2
DASHDOT2
 70
0
  3

 72
65
 73
0
 40
0.0
  0
LTYPE
  5
3D
100
AcDbSymbolTableRecord
100
AcDbLinetypeTableRecord
  2
DASHDOTX2
 70
0
  3

 72
65
 73
0
 40
0.0
  0
LTYPE
  5
3E
100
AcDbSymbolTableRecord
100
AcDbLinetypeTableRecord
  2
DASHED
 70
0
  3

 72
65
 73
0
 40
0.0
  0
LTYPE
  5
3F
100
AcDbSymbolTableRecord
100
AcDbLinetypeTableRecord
  2
DASHED2
 70
0
  3

 72
65
 73
0
 40
0.0
  0
LTYPE
  5
40
100
AcDbSymbolTableRecord
100
AcDbLinetypeTableRecord
  2
DASHEDX2
 70
0
  3

 72
65
 73
0
 40
0.0
  0
LTYPE
  5
41
100
AcDbSymbolTableRecord
100
AcDbLinetypeTableRecord
  2
DIVIDE
 70
0
  3

 72
65
 73
0
 40
0.0
  0
LTYPE
  5
42
100
AcDbSymbolTableRecord
100
AcDbLinetypeTableRecord
  2
DIVIDE2
 70
0
  3

 72
65
 73
0
 40
0.0
  0
LTYPE
  5
43
100
AcDbSymbolTableRecord
100
AcDbLinetypeTableRecord
  2
DIVIDEX2
 70
0
  3

 72
65
 73
0
 40
0.0
  0
LTYPE
  5
44
100
AcDbSymbolTableRecord
100
AcDbLinetypeTableRecord
  2
DOT
 70
0
  3

 72
65
 73
0
 40
0.0
  0
LTYPE
  5
45
100
AcDbSymbolTableRecord
100
AcDbLinetypeTableRecord
  2
DOT2
 70
0
  3

 72
65
 73
0
 40
0.0
  0
LTYPE
  5
46
100
AcDbSymbolTableRecord
100
AcDbLinetypeTableRecord
  2
DOTX2
 70
0
  3

 72
65
 73
0
 40
0.0
  0
ENDTAB
  0
TABLE
  2
LAYER
  5
2
100
AcDbSymbolTable
 70
1
  0
LAYER
  5
10
100
AcDbSymbolTableRecord
100
AcDbLayerTableRecord
  2
0
 70
0
 62
-1
420
0
  6
CONTINUOUS
370
1
390
F
  0
ENDTAB
  0
STYLE
  5
47
100
AcDbSymbolTableRecord
100
AcDbTextStyleTableRecord
  2

 70
0
 40
0.0
 41
0.0
 50
0.0
 71
0
 42
0.0
  3

  4

1001
ACAD
1000

1071
0
  0
TABLE
  2
VIEW
  5
6
100
AcDbSymbolTable
 70
0
  0
ENDTAB
  0
TABLE
  2
UCS
  5
7
100
AcDbSymbolTable
 70
0
  0
ENDTAB
  0
TABLE
  2
APPID
  5
9
100
AcDbSymbolTable
 70
1
  0
APPID
  5
12
100
AcDbSymbolTableRecord
100
AcDbRegAppTableRecord
  2
ACAD
 70
0
  0
ENDTAB
  0
TABLE
  2
DIMSTYLE
  5
A
100
AcDbSymbolTable
 70
1
100
AcDbDimStyleTable
 71
0
  0
DIMSTYLE
105
27
100
AcDbSymbolTableRecord
100
AcDbDimStyleTableRecord
  2
Standard
 41
1.0
 42
1.0
 43
3.75
 44
1.0
 70
0
 73
0
 74
0
 77
1
 78
8
140
1.0
141
2.5
143
0.03937007874016
147
1.0
171
3
172
1
271
2
272
2
274
3
278
44
283
0
284
8
340
3A1A5DA9
  0
ENDTAB
  0
TABLE
  2
BLOCK_RECORD
  5
1
100
AcDbSymbolTable
 70
1
  0
BLOCK_RECORD
  5
1F
100
AcDbSymbolTableRecord
100
AcDbBlockTableRecord
  2
*Model_Space
340
22
  0
BLOCK_RECORD
  5
1B
100
AcDbSymbolTableRecord
100
AcDbBlockTableRecord
  2
*Paper_Space
340
1E
  0
BLOCK_RECORD
  5
23
100
AcDbSymbolTableRecord
100
AcDbBlockTableRecord
  2
*Paper_Space0
340
26
  0
BLOCK_RECORD
  5
48
100
AcDbSymbolTableRecord
100
AcDbBlockTableRecord
  2
myblock1
340
0
  0
BLOCK_RECORD
  5
49
100
AcDbSymbolTableRecord
100
AcDbBlockTableRecord
  2
myblock2
340
0
  0
ENDTAB
  0
ENDSEC
  0
SECTION
  2
BLOCKS
  0
BLOCK
  5
20
100
AcDbEntity
  8
0
100
AcDbBlockBegin
  2
*Model_Space
 70
0
 10
0.0
 20
0.0
 30
0.0
  3
*Model_Space
  1

  0
ENDBLK
  5
21
100
AcDbEntity
  8
0
100
AcDbBlockEnd
  0
BLOCK
  5
1C
100
AcDbEntity
 67
1
  8
0
100
AcDbBlockBegin
  2
*Paper_Space
 70
0
 10
0.0
 20
0.0
 30
0.0
  3
*Paper_Space
  1

  0
ENDBLK
  5
1D
100
AcDbEntity
 67
1
  8
0
100
AcDbBlockEnd
  0
BLOCK
  5
24
100
AcDbEntity
  8
0
100
AcDbBlockBegin
  2
*Paper_Space0
 70
0
 10
0.0
 20
0.0
 30
0.0
  3
*Paper_Space0
  1

  0
ENDBLK
  5
25
100
AcDbEntity
  8
0
100
AcDbBlockEnd
  0
BLOCK
  5
4A
100
AcDbEntity
  8
0
100
AcDbBlockBegin
  2
myblock1
 70
0
 10
0.0
 20
0.0
 30
0.0
  3
myblock1
  1

  0
ENDBLK
  5
4B
100
AcDbEntity
  8
0
100
AcDbBlockEnd
  0
BLOCK
  5
4C
100
AcDbEntity
  8
0
100
AcDbBlockBegin
  2
myblock2
 70
0
 10
0.0
 20
0.0
 30
0.0
  3
myblock2
  1

  0
ENDBLK
  5
4D
100
AcDbEntity
  8
0
100
AcDbBlockEnd
  0
ENDSEC
  0
SECTION
  2
ENTITIES
  0
LWPOLYLINE
  5
4E
100
AcDbEntity
  8
0
 62
-1
420
0
370
1
 48
1.0
  6
CONTINUOUS
100
AcDbPolyline
 90
74
 70
0
 10
444.0
 20
289.83029174804687
 30
0.0
 10
444.00750732421875
 20
289.52279663085937
 30
0.0
 10
444.02999877929687
 20
289.21780395507812
 30
0.0
 10
444.12249755859375
 20
288.62030029296875
 30
0.0
 10
444.26998901367187
 20
288.04531860351562
 30
0.0
 10
444.47250366210937
 20
287.49530029296875
 30
0.0
 10
444.72500610351562
 20
286.97030639648437
 30
0.0
 10
445.02499389648437
 20
286.47531127929687
 30
0.0
 10
445.3699951171875
 20
286.01528930664062
 30
0.0
 10
445.75750732421875
 20
285.58779907226562
 30
0.0
 10
446.1824951171875
 20
285.2003173828125
 30
0.0
 10
446.64498901367187
 20
284.85531616210937
 30
0.0
 10
447.1400146484375
 20
284.5552978515625
 30
0.0
 10
447.66500854492187
 20
284.30279541015625
 30
0.0
 10
448.21499633789062
 20
284.10031127929687
 30
0.0
 10
448.79000854492187
 20
283.95278930664062
 30
0.0
 10
449.38751220703125
 20
283.86029052734375
 30
0.0
 10
449.69000244140625
 20
283.83779907226562
 30
0.0
 10
450.0
 20
283.83029174804687
 30
0.0
 10
450.3074951171875
 20
283.83779907226562
 30
0.0
 10
450.61251831054687
 20
283.86029052734375
 30
0.0
 10
451.20999145507812
 20
283.95278930664062
 30
0.0
 10
451.78500366210937
 20
284.10031127929687
 30
0.0
 10
452.33499145507812
 20
284.30279541015625
 30
0.0
 10
452.86001586914062
 20
284.5552978515625
 30
0.0
 10
453.35501098632812
 20
284.85531616210937
 30
0.0
 10
453.81500244140625
 20
285.2003173828125
 30
0.0
 10
454.24249267578125
 20
285.58779907226562
 30
0.0
 10
454.6300048828125
 20
286.01528930664062
 30
0.0
 10
454.97500610351562
 20
286.47531127929687
 30
0.0
 10
455.27499389648437
 20
286.97030639648437
 30
0.0
 10
455.52749633789062
 20
287.49530029296875
 30
0.0
 10
455.73001098632812
 20
288.04531860351562
 30
0.0
 10
455.87750244140625
 20
288.62030029296875
 30
0.0
 10
455.96749877929687
 20
289.21530151367187
 30
0.0
 10
455.99249267578125
 20
289.52029418945312
 30
0.0
 10
456.0
 20
289.83029174804687
 30
0.0
 10
455.99249267578125
 20
290.14028930664062
 30
0.0
 10
455.97000122070312
 20
290.44281005859375
 30
0.0
 10
455.87750244140625
 20
291.04031372070312
 30
0.0
 10
455.73001098632812
 20
291.61529541015625
 30
0.0
 10
455.52749633789062
 20
292.16531372070312
 30
0.0
 10
455.27499389648437
 20
292.6903076171875
 30
0.0
 10
454.97500610351562
 20
293.185302734375
 30
0.0
 10
454.6300048828125
 20
293.64779663085937
 30
0.0
 10
454.24249267578125
 20
294.07281494140625
 30
0.0
 10
453.81500244140625
 20
294.46029663085937
 30
0.0
 10
453.35501098632812
 20
294.8052978515625
 30
0.0
 10
452.86001586914062
 20
295.10531616210937
 30
0.0
 10
452.33499145507812
 20
295.35781860351562
 30
0.0
 10
451.78250122070312
 20
295.560302734375
 30
0.0
 10
451.20748901367187
 20
295.70779418945312
 30
0.0
 10
450.61251831054687
 20
295.80029296875
 30
0.0
 10
450.3074951171875
 20
295.82281494140625
 30
0.0
 10
450.0
 20
295.83029174804688
 30
0.0
 10
449.69000244140625
 20
295.82281494140625
 30
0.0
 10
449.38751220703125
 20
295.80029296875
 30
0.0
 10
448.79000854492187
 20
295.70779418945312
 30
0.0
 10
448.21499633789062
 20
295.560302734375
 30
0.0
 10
447.66500854492187
 20
295.35781860351562
 30
0.0
 10
447.1400146484375
 20
295.10531616210937
 30
0.0
 10
446.64498901367187
 20
294.8052978515625
 30
0.0
 10
446.1824951171875
 20
294.46029663085937
 30
0.0
 10
445.75750732421875
 20
294.07281494140625
 30
0.0
 10
445.3699951171875
 20
293.64779663085937
 30
0.0
 10
445.02499389648437
 20
293.185302734375
 30
0.0
 10
444.72500610351562
 20
292.6903076171875
 30
0.0
 10
444.47250366210937
 20
292.16531372070312
 30
0.0
 10
444.26998901367187
 20
291.61529541015625
 30
0.0
 10
444.12249755859375
 20
291.04031372070312
 30
0.0
 10
444.02999877929687
 20
290.44281005859375
 30
0.0
 10
444.00750732421875
 20
290.14028930664062
 30
0.0
 10
444.0
 20
289.83029174804687
 30
0.0
 10
444.0
 20
289.83029174804687
 30
0.0
  0
LWPOLYLINE
  5
4F
100
AcDbEntity
  8
0
 62
-1
420
0
370
1
 48
1.0
  6
CONTINUOUS
100
AcDbPolyline
 90
34
 70
0
 10
445.09756469726562
 20
297.08282470703125
 30
0.0
 10
445.11508178710937
 20
296.90032958984375
 30
0.0
 10
445.16757202148437
 20
296.73284912109375
 30
0.0
 10
445.25006103515625
 20
296.580322265625
 30
0.0
 10
445.36007690429687
 20
296.44534301757812
 30
0.0
 10
445.49505615234375
 20
296.3353271484375
 30
0.0
 10
445.64755249023437
 20
296.25283813476562
 30
0.0
 10
445.8150634765625
 20
296.20034790039062
 30
0.0
 10
445.99755859375
 20
296.18283081054687
 30
0.0
 10
446.1800537109375
 20
296.20034790039062
 30
0.0
 10
446.34756469726562
 20
296.25283813476562
 30
0.0
 10
446.50006103515625
 20
296.3353271484375
 30
0.0
 10
446.63507080078125
 20
296.44534301757812
 30
0.0
 10
446.74505615234375
 20
296.580322265625
 30
0.0
 10
446.82757568359375
 20
296.73284912109375
 30
0.0
 10
446.88006591796875
 20
296.90032958984375
 30
0.0
 10
446.89755249023437
 20
297.08282470703125
 30
0.0
 10
446.88006591796875
 20
297.26531982421875
 30
0.0
 10
446.82757568359375
 20
297.43283081054687
 30
0.0
 10
446.74505615234375
 20
297.5853271484375
 30
0.0
 10
446.63507080078125
 20
297.7203369140625
 30
0.0
 10
446.50006103515625
 20
297.830322265625
 30
0.0
 10
446.34756469726562
 20
297.912841796875
 30
0.0
 10
446.1800537109375
 20
297.96533203125
 30
0.0
 10
445.99755859375
 20
297.98284912109375
 30
0.0
 10
445.8150634765625
 20
297.96533203125
 30
0.0
 10
445.64755249023437
 20
297.912841796875
 30
0.0
 10
445.49505615234375
 20
297.830322265625
 30
0.0
 10
445.36007690429687
 20
297.7203369140625
 30
0.0
 10
445.25006103515625
 20
297.5853271484375
 30
0.0
 10
445.16757202148437
 20
297.43283081054687
 30
0.0
 10
445.11508178710937
 20
297.26531982421875
 30
0.0
 10
445.09756469726562
 20
297.08282470703125
 30
0.0
 10
445.09756469726562
 20
297.08282470703125
 30
0.0
  0
LWPOLYLINE
  5
50
100
AcDbEntity
  8
0
 62
-1
420
0
370
1
 48
1.0
  6
CONTINUOUS
100
AcDbPolyline
 90
34
 70
0
 10
453.09756469726562
 20
297.08282470703125
 30
0.0
 10
453.11508178710937
 20
296.90032958984375
 30
0.0
 10
453.16757202148437
 20
296.73284912109375
 30
0.0
 10
453.25006103515625
 20
296.580322265625
 30
0.0
 10
453.36007690429687
 20
296.44534301757812
 30
0.0
 10
453.49505615234375
 20
296.3353271484375
 30
0.0
 10
453.64755249023437
 20
296.25283813476562
 30
0.0
 10
453.8150634765625
 20
296.20034790039062
 30
0.0
 10
453.99755859375
 20
296.18283081054687
 30
0.0
 10
454.1800537109375
 20
296.20034790039062
 30
0.0
 10
454.34756469726562
 20
296.25283813476562
 30
0.0
 10
454.50006103515625
 20
296.3353271484375
 30
0.0
 10
454.63507080078125
 20
296.44534301757812
 30
0.0
 10
454.74505615234375
 20
296.580322265625
 30
0.0
 10
454.82757568359375
 20
296.73284912109375
 30
0.0
 10
454.88006591796875
 20
296.90032958984375
 30
0.0
 10
454.89755249023437
 20
297.08282470703125
 30
0.0
 10
454.88006591796875
 20
297.26531982421875
 30
0.0
 10
454.82757568359375
 20
297.43283081054687
 30
0.0
 10
454.74505615234375
 20
297.5853271484375
 30
0.0
 10
454.63507080078125
 20
297.7203369140625
 30
0.0
 10
454.50006103515625
 20
297.830322265625
 30
0.0
 10
454.34756469726562
 20
297.912841796875
 30
0.0
 10
454.1800537109375
 20
297.96533203125
 30
0.0
 10
453.99755859375
 20
297.98284912109375
 30
0.0
 10
453.8150634765625
 20
297.96533203125
 30
0.0
 10
453.64755249023437
 20
297.912841796875
 30
0.0
 10
453.49505615234375
 20
297.830322265625
 30
0.0
 10
453.36007690429687
 20
297.7203369140625
 30
0.0
 10
453.25006103515625
 20
297.5853271484375
 30
0.0
 10
453.16757202148437
 20
297.43283081054687
 30
0.0
 10
453.11508178710937
 20
297.26531982421875
 30
0.0
 10
453.09756469726562
 20
297.08282470703125
 30
0.0
 10
453.09756469726562
 20
297.08282470703125
 30
0.0
  0
LWPOLYLINE
  5
51
100
AcDbEntity
  8
0
 62
-1
420
0
370
1
 48
1.0
  6
CONTINUOUS
100
AcDbPolyline
 90
34
 70
0
 10
445.10006713867187
 20
282.58779907226562
 30
0.0
 10
445.1175537109375
 20
282.40530395507812
 30
0.0
 10
445.17007446289062
 20
282.23779296875
 30
0.0
 10
445.2525634765625
 20
282.08529663085937
 30
0.0
 10
445.36257934570312
 20
281.9503173828125
 30
0.0
 10
445.49505615234375
 20
281.84030151367187
 30
0.0
 10
445.64755249023437
 20
281.7578125
 30
0.0
 10
445.81756591796875
 20
281.70529174804687
 30
0.0
 10
445.99755859375
 20
281.68780517578125
 30
0.0
 10
446.1800537109375
 20
281.70529174804687
 30
0.0
 10
446.34756469726562
 20
281.7578125
 30
0.0
 10
446.50006103515625
 20
281.84030151367187
 30
0.0
 10
446.63507080078125
 20
281.9503173828125
 30
0.0
 10
446.74505615234375
 20
282.08529663085937
 30
0.0
 10
446.82757568359375
 20
282.23779296875
 30
0.0
 10
446.88006591796875
 20
282.40530395507812
 30
0.0
 10
446.89755249023437
 20
282.58779907226562
 30
0.0
 10
446.88006591796875
 20
282.76779174804687
 30
0.0
 10
446.82757568359375
 20
282.93780517578125
 30
0.0
 10
446.74505615234375
 20
283.09030151367187
 30
0.0
 10
446.63507080078125
 20
283.22280883789062
 30
0.0
 10
446.50006103515625
 20
283.33279418945312
 30
0.0
 10
446.34756469726562
 20
283.41781616210937
 30
0.0
 10
446.1800537109375
 20
283.47030639648437
 30
0.0
 10
445.99755859375
 20
283.48779296875
 30
0.0
 10
445.81756591796875
 20
283.47030639648437
 30
0.0
 10
445.64755249023437
 20
283.41781616210937
 30
0.0
 10
445.49505615234375
 20
283.33279418945312
 30
0.0
 10
445.36257934570312
 20
283.22280883789062
 30
0.0
 10
445.2525634765625
 20
283.09030151367187
 30
0.0
 10
445.17007446289062
 20
282.93780517578125
 30
0.0
 10
445.1175537109375
 20
282.76779174804687
 30
0.0
 10
445.10006713867187
 20
282.58779907226562
 30
0.0
 10
445.10006713867187
 20
282.58779907226562
 30
0.0
  0
LWPOLYLINE
  5
52
100
AcDbEntity
  8
0
 62
-1
420
0
370
1
 48
1.0
  6
CONTINUOUS
100
AcDbPolyline
 90
34
 70
0
 10
453.09506225585937
 20
282.58529663085937
 30
0.0
 10
453.11257934570312
 20
282.40280151367187
 30
0.0
 10
453.16506958007812
 20
282.23529052734375
 30
0.0
 10
453.24755859375
 20
282.08279418945312
 30
0.0
 10
453.35757446289062
 20
281.94781494140625
 30
0.0
 10
453.4925537109375
 20
281.83779907226562
 30
0.0
 10
453.64508056640625
 20
281.75531005859375
 30
0.0
 10
453.81256103515625
 20
281.70278930664062
 30
0.0
 10
453.99505615234375
 20
281.685302734375
 30
0.0
 10
454.17758178710937
 20
281.70278930664062
 30
0.0
 10
454.34506225585937
 20
281.75531005859375
 30
0.0
 10
454.49755859375
 20
281.83779907226562
 30
0.0
 10
454.632568359375
 20
281.94781494140625
 30
0.0
 10
454.7425537109375
 20
282.08279418945312
 30
0.0
 10
454.8250732421875
 20
282.23529052734375
 30
0.0
 10
454.8775634765625
 20
282.40280151367187
 30
0.0
 10
454.89508056640625
 20
282.58529663085937
 30
0.0
 10
454.8775634765625
 20
282.76779174804687
 30
0.0
 10
454.8250732421875
 20
282.935302734375
 30
0.0
 10
454.7425537109375
 20
283.08779907226562
 30
0.0
 10
454.632568359375
 20
283.22280883789062
 30
0.0
 10
454.49755859375
 20
283.33279418945312
 30
0.0
 10
454.34506225585937
 20
283.41531372070312
 30
0.0
 10
454.17758178710937
 20
283.46780395507812
 30
0.0
 10
453.99505615234375
 20
283.48529052734375
 30
0.0
 10
453.81256103515625
 20
283.46780395507812
 30
0.0
 10
453.64508056640625
 20
283.41531372070312
 30
0.0
 10
453.4925537109375
 20
283.33279418945312
 30
0.0
 10
453.35757446289062
 20
283.22280883789062
 30
0.0
 10
453.24755859375
 20
283.08779907226562
 30
0.0
 10
453.16506958007812
 20
282.935302734375
 30
0.0
 10
453.11257934570312
 20
282.76779174804687
 30
0.0
 10
453.09506225585937
 20
282.58529663085937
 30
0.0
 10
453.09506225585937
 20
282.58529663085937
 30
0.0
  0
LWPOLYLINE
  5
53
100
AcDbEntity
  8
0
 62
-1
420
0
370
1
 48
1.0
  6
CONTINUOUS
100
AcDbPolyline
 90
66
 70
0
 10
451.24755859375
 20
277.6378173828125
 30
0.0
 10
451.3675537109375
 20
277.77029418945312
 30
0.0
 10
451.47256469726562
 20
277.91281127929687
 30
0.0
 10
451.56005859375
 20
278.060302734375
 30
0.0
 10
451.632568359375
 20
278.21530151367187
 30
0.0
 10
451.68756103515625
 20
278.3778076171875
 30
0.0
 10
451.72756958007813
 20
278.54031372070313
 30
0.0
 10
451.7525634765625
 20
278.70779418945312
 30
0.0
 10
451.76007080078125
 20
278.87530517578125
 30
0.0
 10
451.7525634765625
 20
279.04281616210937
 30
0.0
 10
451.72756958007813
 20
279.21029663085937
 30
0.0
 10
451.68756103515625
 20
279.372802734375
 30
0.0
 10
451.632568359375
 20
279.53530883789062
 30
0.0
 10
451.56005859375
 20
279.6903076171875
 30
0.0
 10
451.47256469726562
 20
279.83779907226562
 30
0.0
 10
451.3675537109375
 20
279.98031616210937
 30
0.0
 10
451.24755859375
 20
280.11279296875
 30
0.0
 10
451.11508178710937
 20
280.23281860351562
 30
0.0
 10
450.97256469726562
 20
280.33779907226562
 30
0.0
 10
450.82257080078125
 20
280.42529296875
 30
0.0
 10
450.66757202148437
 20
280.497802734375
 30
0.0
 10
450.507568359375
 20
280.55279541015625
 30
0.0
 10
450.34255981445312
 20
280.59280395507812
 30
0.0
 10
450.17758178710937
 20
280.6177978515625
 30
0.0
 10
450.01007080078125
 20
280.62530517578125
 30
0.0
 10
449.84255981445312
 20
280.6177978515625
 30
0.0
 10
449.67507934570312
 20
280.59280395507812
 30
0.0
 10
449.51007080078125
 20
280.55279541015625
 30
0.0
 10
449.35006713867187
 20
280.497802734375
 30
0.0
 10
449.195068359375
 20
280.42529296875
 30
0.0
 10
449.04757690429687
 20
280.33779907226562
 30
0.0
 10
448.90505981445312
 20
280.23281860351562
 30
0.0
 10
448.77255249023437
 20
280.11279296875
 30
0.0
 10
448.65255737304687
 20
279.98031616210937
 30
0.0
 10
448.54757690429687
 20
279.83779907226562
 30
0.0
 10
448.46005249023437
 20
279.6903076171875
 30
0.0
 10
448.3875732421875
 20
279.53530883789062
 30
0.0
 10
448.33258056640625
 20
279.372802734375
 30
0.0
 10
448.29257202148437
 20
279.21029663085937
 30
0.0
 10
448.267578125
 20
279.04281616210937
 30
0.0
 10
448.26007080078125
 20
278.87530517578125
 30
0.0
 10
448.267578125
 20
278.70779418945312
 30
0.0
 10
448.29257202148437
 20
278.54031372070313
 30
0.0
 10
448.33258056640625
 20
278.3778076171875
 30
0.0
 10
448.3875732421875
 20
278.21530151367187
 30
0.0
 10
448.46005249023437
 20
278.060302734375
 30
0.0
 10
448.54757690429687
 20
277.91281127929687
 30
0.0
 10
448.65255737304687
 20
277.77029418945312
 30
0.0
 10
448.77255249023437
 20
277.6378173828125
 30
0.0
 10
448.90505981445312
 20
277.51779174804687
 30
0.0
 10
449.04757690429687
 20
277.41281127929687
 30
0.0
 10
449.195068359375
 20
277.3253173828125
 30
0.0
 10
449.35006713867187
 20
277.2528076171875
 30
0.0
 10
449.51007080078125
 20
277.19781494140625
 30
0.0
 10
449.67507934570312
 20
277.15780639648438
 30
0.0
 10
449.84255981445312
 20
277.1328125
 30
0.0
 10
450.01007080078125
 20
277.12530517578125
 30
0.0
 10
450.17758178710937
 20
277.1328125
 30
0.0
 10
450.34255981445312
 20
277.15780639648438
 30
0.0
 10
450.507568359375
 20
277.19781494140625
 30
0.0
 10
450.66757202148437
 20
277.2528076171875
 30
0.0
 10
450.82257080078125
 20
277.3253173828125
 30
0.0
 10
450.97256469726562
 20
277.41281127929687
 30
0.0
 10
451.11508178710937
 20
277.51779174804687
 30
0.0
 10
451.24755859375
 20
277.6378173828125
 30
0.0
 10
451.24755859375
 20
277.6378173828125
 30
0.0
  0
LWPOLYLINE
  5
54
100
AcDbEntity
  8
0
 62
-1
420
0
370
1
 48
1.0
  6
CONTINUOUS
100
AcDbPolyline
 90
66
 70
0
 10
440.28756713867187
 20
288.59780883789062
 30
0.0
 10
440.40756225585937
 20
288.73031616210937
 30
0.0
 10
440.5125732421875
 20
288.872802734375
 30
0.0
 10
440.60006713867187
 20
289.02029418945312
 30
0.0
 10
440.67257690429688
 20
289.17529296875
 30
0.0
 10
440.72756958007812
 20
289.33779907226562
 30
0.0
 10
440.767578125
 20
289.50030517578125
 30
0.0
 10
440.79257202148437
 20
289.66781616210937
 30
0.0
 10
440.80007934570312
 20
289.83529663085937
 30
0.0
 10
440.79257202148437
 20
290.0028076171875
 30
0.0
 10
440.767578125
 20
290.17031860351562
 30
0.0
 10
440.72756958007812
 20
290.33279418945312
 30
0.0
 10
440.67257690429688
 20
290.49530029296875
 30
0.0
 10
440.60006713867187
 20
290.65029907226562
 30
0.0
 10
440.5125732421875
 20
290.79779052734375
 30
0.0
 10
440.40756225585937
 20
290.9403076171875
 30
0.0
 10
440.28756713867187
 20
291.07281494140625
 30
0.0
 10
440.15505981445312
 20
291.19281005859375
 30
0.0
 10
440.0125732421875
 20
291.29779052734375
 30
0.0
 10
439.86257934570312
 20
291.38531494140625
 30
0.0
 10
439.70758056640625
 20
291.45779418945312
 30
0.0
 10
439.54757690429687
 20
291.5128173828125
 30
0.0
 10
439.382568359375
 20
291.55279541015625
 30
0.0
 10
439.21755981445312
 20
291.57778930664062
 30
0.0
 10
439.05007934570312
 20
291.58529663085937
 30
0.0
 10
438.882568359375
 20
291.57778930664062
 30
0.0
 10
438.71505737304687
 20
291.55279541015625
 30
0.0
 10
438.55007934570312
 20
291.5128173828125
 30
0.0
 10
438.39007568359375
 20
291.45779418945312
 30
0.0
 10
438.23507690429687
 20
291.38531494140625
 30
0.0
 10
438.08755493164062
 20
291.29779052734375
 30
0.0
 10
437.945068359375
 20
291.19281005859375
 30
0.0
 10
437.81256103515625
 20
291.07281494140625
 30
0.0
 10
437.69256591796875
 20
290.9403076171875
 30
0.0
 10
437.58755493164062
 20
290.79779052734375
 30
0.0
 10
437.50006103515625
 20
290.65029907226562
 30
0.0
 10
437.42758178710937
 20
290.49530029296875
 30
0.0
 10
437.37255859375
 20
290.33279418945312
 30
0.0
 10
437.33258056640625
 20
290.17031860351562
 30
0.0
 10
437.30755615234375
 20
290.0028076171875
 30
0.0
 10
437.30007934570312
 20
289.83529663085937
 30
0.0
 10
437.30755615234375
 20
289.66781616210937
 30
0.0
 10
437.33258056640625
 20
289.50030517578125
 30
0.0
 10
437.37255859375
 20
289.33779907226562
 30
0.0
 10
437.42758178710937
 20
289.17529296875
 30
0.0
 10
437.50006103515625
 20
289.02029418945312
 30
0.0
 10
437.58755493164062
 20
288.872802734375
 30
0.0
 10
437.69256591796875
 20
288.73031616210937
 30
0.0
 10
437.81256103515625
 20
288.59780883789062
 30
0.0
 10
437.945068359375
 20
288.47781372070312
 30
0.0
 10
438.08755493164062
 20
288.372802734375
 30
0.0
 10
438.23507690429687
 20
288.28530883789062
 30
0.0
 10
438.39007568359375
 20
288.21279907226563
 30
0.0
 10
438.55007934570312
 20
288.15780639648437
 30
0.0
 10
438.71505737304687
 20
288.1177978515625
 30
0.0
 10
438.882568359375
 20
288.09280395507812
 30
0.0
 10
439.05007934570312
 20
288.08529663085937
 30
0.0
 10
439.21755981445312
 20
288.09280395507812
 30
0.0
 10
439.382568359375
 20
288.1177978515625
 30
0.0
 10
439.54757690429687
 20
288.15780639648437
 30
0.0
 10
439.70758056640625
 20
288.21279907226563
 30
0.0
 10
439.86257934570312
 20
288.28530883789062
 30
0.0
 10
440.0125732421875
 20
288.372802734375
 30
0.0
 10
440.15505981445312
 20
288.47781372070312
 30
0.0
 10
440.28756713867187
 20
288.59780883789062
 30
0.0
 10
440.28756713867187
 20
288.59780883789062
 30
0.0
  0
LWPOLYLINE
  5
55
100
AcDbEntity
  8
0
 62
-1
420
0
370
1
 48
1.0
  6
CONTINUOUS
100
AcDbPolyline
 90
66
 70
0
 10
462.205078125
 20
288.59530639648437
 30
0.0
 10
462.3250732421875
 20
288.72781372070312
 30
0.0
 10
462.4300537109375
 20
288.87030029296875
 30
0.0
 10
462.517578125
 20
289.02029418945312
 30
0.0
 10
462.59005737304687
 20
289.17529296875
 30
0.0
 10
462.64508056640625
 20
289.33529663085937
 30
0.0
 10
462.68505859375
 20
289.50030517578125
 30
0.0
 10
462.71005249023437
 20
289.66531372070312
 30
0.0
 10
462.71755981445312
 20
289.83279418945312
 30
0.0
 10
462.71005249023437
 20
290.00030517578125
 30
0.0
 10
462.68505859375
 20
290.16781616210937
 30
0.0
 10
462.64508056640625
 20
290.33279418945312
 30
0.0
 10
462.59005737304687
 20
290.4927978515625
 30
0.0
 10
462.517578125
 20
290.64779663085937
 30
0.0
 10
462.4300537109375
 20
290.79531860351562
 30
0.0
 10
462.3250732421875
 20
290.93780517578125
 30
0.0
 10
462.205078125
 20
291.0703125
 30
0.0
 10
462.07257080078125
 20
291.1903076171875
 30
0.0
 10
461.9300537109375
 20
291.29531860351562
 30
0.0
 10
461.78256225585937
 20
291.3828125
 30
0.0
 10
461.6275634765625
 20
291.45529174804688
 30
0.0
 10
461.46755981445312
 20
291.51031494140625
 30
0.0
 10
461.30258178710937
 20
291.55029296875
 30
0.0
 10
461.13507080078125
 20
291.5753173828125
 30
0.0
 10
460.96755981445312
 20
291.58279418945312
 30
0.0
 10
460.80007934570312
 20
291.5753173828125
 30
0.0
 10
460.63507080078125
 20
291.55029296875
 30
0.0
 10
460.47006225585938
 20
291.51031494140625
 30
0.0
 10
460.31005859375
 20
291.45529174804688
 30
0.0
 10
460.15505981445312
 20
291.3828125
 30
0.0
 10
460.00506591796875
 20
291.29531860351562
 30
0.0
 10
459.86257934570312
 20
291.1903076171875
 30
0.0
 10
459.73007202148437
 20
291.0703125
 30
0.0
 10
459.61007690429687
 20
290.93780517578125
 30
0.0
 10
459.50506591796875
 20
290.79531860351562
 30
0.0
 10
459.41757202148437
 20
290.64779663085937
 30
0.0
 10
459.34506225585937
 20
290.4927978515625
 30
0.0
 10
459.29006958007813
 20
290.33279418945312
 30
0.0
 10
459.25006103515625
 20
290.16781616210937
 30
0.0
 10
459.22506713867187
 20
290.00030517578125
 30
0.0
 10
459.21755981445312
 20
289.83279418945312
 30
0.0
 10
459.22506713867187
 20
289.66531372070312
 30
0.0
 10
459.25006103515625
 20
289.50030517578125
 30
0.0
 10
459.29006958007813
 20
289.33529663085937
 30
0.0
 10
459.34506225585937
 20
289.17529296875
 30
0.0
 10
459.41757202148437
 20
289.02029418945312
 30
0.0
 10
459.50506591796875
 20
288.87030029296875
 30
0.0
 10
459.61007690429687
 20
288.72781372070312
 30
0.0
 10
459.73007202148437
 20
288.59530639648437
 30
0.0
 10
459.86257934570312
 20
288.47531127929687
 30
0.0
 10
460.00506591796875
 20
288.37030029296875
 30
0.0
 10
460.15505981445312
 20
288.28280639648437
 30
0.0
 10
460.31005859375
 20
288.21029663085937
 30
0.0
 10
460.47006225585938
 20
288.15530395507812
 30
0.0
 10
460.63507080078125
 20
288.11529541015625
 30
0.0
 10
460.80007934570312
 20
288.09030151367187
 30
0.0
 10
460.96755981445312
 20
288.08279418945312
 30
0.0
 10
461.13507080078125
 20
288.09030151367187
 30
0.0
 10
461.30258178710937
 20
288.11529541015625
 30
0.0
 10
461.46755981445312
 20
288.15530395507812
 30
0.0
 10
461.6275634765625
 20
288.21029663085937
 30
0.0
 10
461.78256225585937
 20
288.28280639648437
 30
0.0
 10
461.9300537109375
 20
288.37030029296875
 30
0.0
 10
462.07257080078125
 20
288.47531127929687
 30
0.0
 10
462.205078125
 20
288.59530639648437
 30
0.0
 10
462.205078125
 20
288.59530639648437
 30
0.0
  0
LWPOLYLINE
  5
56
100
AcDbEntity
  8
0
 62
-1
420
0
370
1
 48
1.0
  6
CONTINUOUS
100
AcDbPolyline
 90
66
 70
0
 10
451.24505615234375
 20
299.55780029296875
 30
0.0
 10
451.36508178710937
 20
299.6903076171875
 30
0.0
 10
451.47006225585937
 20
299.83279418945312
 30
0.0
 10
451.55755615234375
 20
299.98031616210937
 30
0.0
 10
451.63006591796875
 20
300.13531494140625
 30
0.0
 10
451.68505859375
 20
300.29531860351562
 30
0.0
 10
451.72506713867187
 20
300.46029663085937
 30
0.0
 10
451.75006103515625
 20
300.62530517578125
 30
0.0
 10
451.757568359375
 20
300.79531860351562
 30
0.0
 10
451.75006103515625
 20
300.96279907226562
 30
0.0
 10
451.72506713867187
 20
301.1278076171875
 30
0.0
 10
451.68505859375
 20
301.29281616210937
 30
0.0
 10
451.63006591796875
 20
301.45278930664062
 30
0.0
 10
451.55755615234375
 20
301.60781860351562
 30
0.0
 10
451.47006225585937
 20
301.75531005859375
 30
0.0
 10
451.36508178710937
 20
301.89779663085937
 30
0.0
 10
451.24505615234375
 20
302.03030395507812
 30
0.0
 10
451.11257934570312
 20
302.15029907226562
 30
0.0
 10
450.97006225585937
 20
302.25531005859375
 30
0.0
 10
450.82257080078125
 20
302.34280395507812
 30
0.0
 10
450.66757202148437
 20
302.41531372070313
 30
0.0
 10
450.507568359375
 20
302.47030639648437
 30
0.0
 10
450.34255981445312
 20
302.51031494140625
 30
0.0
 10
450.17507934570312
 20
302.53530883789062
 30
0.0
 10
450.007568359375
 20
302.54281616210937
 30
0.0
 10
449.84005737304687
 20
302.53530883789062
 30
0.0
 10
449.67507934570312
 20
302.51031494140625
 30
0.0
 10
449.51007080078125
 20
302.47030639648437
 30
0.0
 10
449.35006713867187
 20
302.41531372070313
 30
0.0
 10
449.195068359375
 20
302.34280395507812
 30
0.0
 10
449.04507446289062
 20
302.25531005859375
 30
0.0
 10
448.90255737304687
 20
302.15029907226562
 30
0.0
 10
448.77008056640625
 20
302.03030395507812
 30
0.0
 10
448.65005493164062
 20
301.89779663085937
 30
0.0
 10
448.54507446289062
 20
301.75531005859375
 30
0.0
 10
448.45758056640625
 20
301.60781860351562
 30
0.0
 10
448.38507080078125
 20
301.45278930664062
 30
0.0
 10
448.330078125
 20
301.29281616210937
 30
0.0
 10
448.29006958007812
 20
301.1278076171875
 30
0.0
 10
448.26507568359375
 20
300.96279907226562
 30
0.0
 10
448.257568359375
 20
300.79531860351562
 30
0.0
 10
448.26507568359375
 20
300.62530517578125
 30
0.0
 10
448.29006958007812
 20
300.46029663085937
 30
0.0
 10
448.330078125
 20
300.29531860351562
 30
0.0
 10
448.38507080078125
 20
300.13531494140625
 30
0.0
 10
448.45758056640625
 20
299.98031616210937
 30
0.0
 10
448.54507446289062
 20
299.83279418945312
 30
0.0
 10
448.65005493164062
 20
299.6903076171875
 30
0.0
 10
448.77008056640625
 20
299.55780029296875
 30
0.0
 10
448.90255737304687
 20
299.43780517578125
 30
0.0
 10
449.04507446289062
 20
299.33279418945312
 30
0.0
 10
449.195068359375
 20
299.24530029296875
 30
0.0
 10
449.35006713867187
 20
299.17279052734375
 30
0.0
 10
449.51007080078125
 20
299.11529541015625
 30
0.0
 10
449.67507934570312
 20
299.0753173828125
 30
0.0
 10
449.84005737304687
 20
299.05279541015625
 30
0.0
 10
450.007568359375
 20
299.04531860351562
 30
0.0
 10
450.17507934570312
 20
299.05279541015625
 30
0.0
 10
450.34255981445312
 20
299.0753173828125
 30
0.0
 10
450.507568359375
 20
299.11529541015625
 30
0.0
 10
450.66757202148437
 20
299.17279052734375
 30
0.0
 10
450.82257080078125
 20
299.24530029296875
 30
0.0
 10
450.97006225585937
 20
299.33279418945312
 30
0.0
 10
451.11257934570312
 20
299.43780517578125
 30
0.0
 10
451.24505615234375
 20
299.55780029296875
 30
0.0
 10
451.24505615234375
 20
299.55780029296875
 30
0.0
  0
LWPOLYLINE
  5
57
100
AcDbEntity
  8
0
 62
-1
420
0
370
1
 48
1.0
  6
CONTINUOUS
100
AcDbPolyline
 90
134
 70
0
 10
400.02005004882812
 20
314.72122192382812
 30
0.0
 10
398.43856811523437
 20
311.72457885742187
 30
0.0
 10
396.94140625
 20
308.70230102539062
 30
0.0
 10
395.52886962890625
 20
305.66165161132812
 30
0.0
 10
394.19638061523437
 20
302.6014404296875
 30
0.0
 10
392.95144653320312
 20
299.52108764648437
 30
0.0
 10
391.788330078125
 20
296.424072265625
 30
0.0
 10
390.70693969726562
 20
293.31024169921875
 30
0.0
 10
389.70614624023437
 20
290.18429565429687
 30
0.0
 10
388.78884887695312
 20
287.04437255859375
 30
0.0
 10
387.95211791992187
 20
283.89230346679687
 30
0.0
 10
387.1976318359375
 20
280.73074340820312
 30
0.0
 10
386.52362060546875
 20
277.55709838867187
 30
0.0
 10
385.92782592773437
 20
274.38018798828125
 30
0.0
 10
385.41598510742187
 20
271.1966552734375
 30
0.0
 10
384.97781372070312
 20
268.0089111328125
 30
0.0
 10
384.62332153320312
 20
264.81442260742187
 30
0.0
 10
384.3460693359375
 20
261.62139892578125
 30
0.0
 10
384.1439208984375
 20
258.42678833007812
 30
0.0
 10
384.02328491210937
 20
255.234619140625
 30
0.0
 10
383.97958374023437
 20
252.0438232421875
 30
0.0
 10
383.9830322265625
 20
251.7030029296875
 30
0.0
 10
384.00137329101562
 20
251.69210815429687
 30
0.0
 10
386.97219848632812
 20
250.0264892578125
 30
0.0
 10
389.96871948242187
 20
248.44500732421875
 30
0.0
 10
392.99099731445312
 20
246.94778442382812
 30
0.0
 10
396.03170776367187
 20
245.53518676757813
 30
0.0
 10
399.09185791015625
 20
244.20272827148437
 30
0.0
 10
402.17221069335938
 20
242.95782470703125
 30
0.0
 10
405.26925659179687
 20
241.79470825195312
 30
0.0
 10
408.38302612304687
 20
240.71334838867187
 30
0.0
 10
411.50900268554687
 20
239.71246337890625
 30
0.0
 10
414.64889526367188
 20
238.795166015625
 30
0.0
 10
417.801025390625
 20
237.95846557617187
 30
0.0
 10
420.96249389648438
 20
237.20394897460937
 30
0.0
 10
424.13623046875
 20
236.53005981445312
 30
0.0
 10
427.31314086914062
 20
235.93423461914062
 30
0.0
 10
430.49484252929687
 20
235.41943359375
 30
0.0
 10
433.6844482421875
 20
234.98406982421875
 30
0.0
 10
436.87722778320312
 20
234.62689208984375
 30
0.0
 10
440.07025146484375
 20
234.34942626953125
 30
0.0
 10
443.2666015625
 20
234.1502685546875
 30
0.0
 10
446.45867919921875
 20
234.02957153320312
 30
0.0
 10
449.64785766601562
 20
233.98318481445312
 30
0.0
 10
452.83453369140625
 20
234.01797485351562
 30
0.0
 10
456.0137939453125
 20
234.12582397460938
 30
0.0
 10
459.18890380859375
 20
234.31228637695312
 30
0.0
 10
462.35537719726562
 20
234.57614135742187
 30
0.0
 10
465.50982666015625
 20
234.91152954101562
 30
0.0
 10
468.65557861328125
 20
235.32461547851562
 30
0.0
 10
471.78829956054687
 20
235.81369018554687
 30
0.0
 10
474.90887451171875
 20
236.37451171875
 30
0.0
 10
478.01193237304687
 20
237.01022338867187
 30
0.0
 10
481.09722900390625
 20
237.72100830078125
 30
0.0
 10
484.16610717773438
 20
238.50222778320312
 30
0.0
 10
487.21435546875
 20
239.36007690429687
 30
0.0
 10
490.243408203125
 20
240.29010009765625
 30
0.0
 10
493.25149536132812
 20
241.28933715820312
 30
0.0
 10
496.23275756835937
 20
242.36123657226562
 30
0.0
 10
499.18740844726562
 20
243.50558471679687
 30
0.0
 10
502.11825561523437
 20
244.720947265625
 30
0.0
 10
505.0206298828125
 20
246.00601196289062
 30
0.0
 10
507.89193725585938
 20
247.3623046875
 30
0.0
 10
510.73477172851562
 20
248.78848266601562
 30
0.0
 10
513.5447998046875
 20
250.2830810546875
 30
0.0
 10
516.0203857421875
 20
251.67919921875
 30
0.0
 10
515.9918212890625
 20
254.52120971679687
 30
0.0
 10
515.881103515625
 20
257.70211791992187
 30
0.0
 10
515.697509765625
 20
260.8756103515625
 30
0.0
 10
515.4337158203125
 20
264.0419921875
 30
0.0
 10
515.09527587890625
 20
267.19818115234375
 30
0.0
 10
514.682373046875
 20
270.34396362304688
 30
0.0
 10
514.19775390625
 20
273.47781372070313
 30
0.0
 10
513.6353759765625
 20
276.5955810546875
 30
0.0
 10
512.99957275390625
 20
279.69857788085937
 30
0.0
 10
512.288818359375
 20
282.783935546875
 30
0.0
 10
511.5047607421875
 20
285.85443115234375
 30
0.0
 10
510.6485595703125
 20
288.9056396484375
 30
0.0
 10
509.72134399414062
 20
291.9329833984375
 30
0.0
 10
508.72048950195312
 20
294.9381103515625
 30
0.0
 10
507.64862060546875
 20
297.91940307617187
 30
0.0
 10
506.50137329101562
 20
300.87576293945312
 30
0.0
 10
505.28607177734375
 20
303.8065185546875
 30
0.0
 10
504.0010986328125
 20
306.70895385742187
 30
0.0
 10
502.64633178710937
 20
309.5831298828125
 30
0.0
 10
501.21865844726562
 20
312.42315673828125
 30
0.0
 10
499.72402954101562
 20
315.23324584960937
 30
0.0
 10
498.15927124023437
 20
318.00765991210937
 30
0.0
 10
496.52593994140625
 20
320.74917602539062
 30
0.0
 10
494.82540893554687
 20
323.45327758789062
 30
0.0
 10
493.05307006835937
 20
326.11883544921875
 30
0.0
 10
491.21633911132812
 20
328.74545288085937
 30
0.0
 10
489.31503295898438
 20
331.33303833007812
 30
0.0
 10
487.34158325195312
 20
333.87469482421875
 30
0.0
 10
485.30361938476562
 20
336.37728881835937
 30
0.0
 10
483.19924926757812
 20
338.83071899414062
 30
0.0
 10
481.03155517578125
 20
341.24053955078125
 30
0.0
 10
478.79449462890625
 20
343.60287475585937
 30
0.0
 10
476.49380493164062
 20
345.914306640625
 30
0.0
 10
474.12942504882812
 20
348.17486572265625
 30
0.0
 10
471.69967651367187
 20
350.38165283203125
 30
0.0
 10
469.2091064453125
 20
352.535888671875
 30
0.0
 10
466.65325927734375
 20
354.63641357421875
 30
0.0
 10
464.03207397460938
 20
356.68325805664062
 30
0.0
 10
461.35089111328125
 20
358.66558837890625
 30
0.0
 10
458.607177734375
 20
360.59259033203125
 30
0.0
 10
455.79946899414062
 20
362.46136474609375
 30
0.0
 10
452.93161010742187
 20
364.26568603515625
 30
0.0
 10
450.00369262695312
 20
366.00567626953125
 30
0.0
 10
449.98391723632812
 20
366.01678466796875
 30
0.0
 10
449.6837158203125
 20
365.84738159179687
 30
0.0
 10
446.9422607421875
 20
364.21417236328125
 30
0.0
 10
444.23806762695312
 20
362.51361083984375
 30
0.0
 10
441.572509765625
 20
360.74127197265625
 30
0.0
 10
438.9459228515625
 20
358.90447998046875
 30
0.0
 10
436.35836791992187
 20
357.0032958984375
 30
0.0
 10
433.81668090820312
 20
355.02978515625
 30
0.0
 10
431.31405639648437
 20
352.99188232421875
 30
0.0
 10
428.86068725585938
 20
350.887451171875
 30
0.0
 10
426.45071411132812
 20
348.71978759765625
 30
0.0
 10
424.0885009765625
 20
346.48272705078125
 30
0.0
 10
421.77700805664062
 20
344.18206787109375
 30
0.0
 10
419.5164794921875
 20
341.817626953125
 30
0.0
 10
417.30960083007812
 20
339.387939453125
 30
0.0
 10
415.15548706054687
 20
336.89743041992187
 30
0.0
 10
413.05490112304687
 20
334.34158325195312
 30
0.0
 10
411.008056640625
 20
331.7203369140625
 30
0.0
 10
409.02569580078125
 20
329.03915405273437
 30
0.0
 10
407.09869384765625
 20
326.29547119140625
 30
0.0
 10
405.22998046875
 20
323.4876708984375
 30
0.0
 10
403.4256591796875
 20
320.61990356445312
 30
0.0
 10
401.6856689453125
 20
317.69192504882812
 30
0.0
 10
400.02005004882812
 20
314.72122192382812
 30
0.0
 10
400.02005004882812
 20
314.72122192382812
 30
0.0
  0
LWPOLYLINE
  5
58
100
AcDbEntity
  8
0
 62
-1
420
0
370
1
 48
1.0
  6
CONTINUOUS
100
AcDbPolyline
 90
50
 70
0
 10
448.257568359375
 20
359.26278686523437
 30
0.0
 10
448.267578125
 20
359.08279418945312
 30
0.0
 10
448.29257202148437
 20
358.9102783203125
 30
0.0
 10
448.33755493164063
 20
358.7427978515625
 30
0.0
 10
448.39508056640625
 20
358.58029174804688
 30
0.0
 10
448.55755615234375
 20
358.28277587890625
 30
0.0
 10
448.77008056640625
 20
358.02529907226562
 30
0.0
 10
449.03005981445312
 20
357.810302734375
 30
0.0
 10
449.32757568359375
 20
357.65029907226562
 30
0.0
 10
449.48757934570312
 20
357.59030151367187
 30
0.0
 10
449.65505981445312
 20
357.54779052734375
 30
0.0
 10
449.830078125
 20
357.52279663085937
 30
0.0
 10
450.007568359375
 20
357.51278686523437
 30
0.0
 10
450.18756103515625
 20
357.52279663085937
 30
0.0
 10
450.36007690429687
 20
357.54779052734375
 30
0.0
 10
450.52755737304687
 20
357.59030151367187
 30
0.0
 10
450.6900634765625
 20
357.65029907226562
 30
0.0
 10
450.98757934570312
 20
357.810302734375
 30
0.0
 10
451.24505615234375
 20
358.02529907226562
 30
0.0
 10
451.46005249023437
 20
358.28277587890625
 30
0.0
 10
451.62005615234375
 20
358.58029174804688
 30
0.0
 10
451.6800537109375
 20
358.7427978515625
 30
0.0
 10
451.72256469726562
 20
358.9102783203125
 30
0.0
 10
451.74755859375
 20
359.08279418945312
 30
0.0
 10
451.757568359375
 20
359.26278686523437
 30
0.0
 10
451.74755859375
 20
359.44027709960937
 30
0.0
 10
451.72256469726562
 20
359.61529541015625
 30
0.0
 10
451.6800537109375
 20
359.78277587890625
 30
0.0
 10
451.62005615234375
 20
359.94277954101562
 30
0.0
 10
451.46005249023437
 20
360.24029541015625
 30
0.0
 10
451.24505615234375
 20
360.49777221679687
 30
0.0
 10
450.98757934570312
 20
360.71279907226562
 30
0.0
 10
450.6900634765625
 20
360.87277221679687
 30
0.0
 10
450.52755737304687
 20
360.93280029296875
 30
0.0
 10
450.36007690429687
 20
360.97528076171875
 30
0.0
 10
450.18756103515625
 20
361.00027465820312
 30
0.0
 10
450.007568359375
 20
361.01028442382812
 30
0.0
 10
449.830078125
 20
361.00027465820312
 30
0.0
 10
449.65505981445312
 20
360.97528076171875
 30
0.0
 10
449.48757934570312
 20
360.93280029296875
 30
0.0
 10
449.32757568359375
 20
360.87277221679687
 30
0.0
 10
449.03005981445312
 20
360.71279907226562
 30
0.0
 10
448.77008056640625
 20
360.49777221679687
 30
0.0
 10
448.55755615234375
 20
360.24029541015625
 30
0.0
 10
448.39508056640625
 20
359.94277954101562
 30
0.0
 10
448.33755493164063
 20
359.78277587890625
 30
0.0
 10
448.29257202148437
 20
359.61529541015625
 30
0.0
 10
448.267578125
 20
359.44027709960937
 30
0.0
 10
448.257568359375
 20
359.26278686523437
 30
0.0
 10
448.257568359375
 20
359.26278686523437
 30
0.0
  0
LWPOLYLINE
  5
59
100
AcDbEntity
  8
0
 62
-1
420
0
370
1
 48
1.0
  6
CONTINUOUS
100
AcDbPolyline
 90
54
 70
0
 10
390.64007568359375
 20
253.68777465820312
 30
0.0
 10
390.92758178710937
 20
253.895263671875
 30
0.0
 10
391.16256713867187
 20
254.14776611328125
 30
0.0
 10
391.33755493164063
 20
254.43527221679687
 30
0.0
 10
391.40505981445312
 20
254.59027099609375
 30
0.0
 10
391.455078125
 20
254.75027465820313
 30
0.0
 10
391.4925537109375
 20
254.915283203125
 30
0.0
 10
391.5125732421875
 20
255.08026123046875
 30
0.0
 10
391.51507568359375
 20
255.25027465820312
 30
0.0
 10
391.5025634765625
 20
255.4202880859375
 30
0.0
 10
391.47256469726562
 20
255.5877685546875
 30
0.0
 10
391.42507934570312
 20
255.75527954101562
 30
0.0
 10
391.36257934570312
 20
255.9202880859375
 30
0.0
 10
391.28005981445312
 20
256.08026123046875
 30
0.0
 10
391.07257080078125
 20
256.36776733398438
 30
0.0
 10
390.820068359375
 20
256.60028076171875
 30
0.0
 10
390.53256225585937
 20
256.77777099609375
 30
0.0
 10
390.3775634765625
 20
256.84527587890625
 30
0.0
 10
390.21755981445312
 20
256.895263671875
 30
0.0
 10
390.05258178710937
 20
256.93026733398437
 30
0.0
 10
389.88507080078125
 20
256.95028686523437
 30
0.0
 10
389.71755981445312
 20
256.95526123046875
 30
0.0
 10
389.54757690429687
 20
256.94277954101562
 30
0.0
 10
389.3775634765625
 20
256.91278076171875
 30
0.0
 10
389.2100830078125
 20
256.86526489257812
 30
0.0
 10
389.04757690429687
 20
256.80276489257812
 30
0.0
 10
388.8875732421875
 20
256.72027587890625
 30
0.0
 10
388.60006713867187
 20
256.51278686523437
 30
0.0
 10
388.36508178710937
 20
256.26028442382812
 30
0.0
 10
388.1900634765625
 20
255.97027587890625
 30
0.0
 10
388.12255859375
 20
255.81527709960937
 30
0.0
 10
388.07257080078125
 20
255.6552734375
 30
0.0
 10
388.03506469726562
 20
255.49276733398438
 30
0.0
 10
388.01507568359375
 20
255.32528686523437
 30
0.0
 10
388.0125732421875
 20
255.1552734375
 30
0.0
 10
388.02505493164062
 20
254.98776245117187
 30
0.0
 10
388.0550537109375
 20
254.81777954101562
 30
0.0
 10
388.10256958007812
 20
254.6502685546875
 30
0.0
 10
388.16506958007812
 20
254.48776245117187
 30
0.0
 10
388.24755859375
 20
254.32778930664062
 30
0.0
 10
388.455078125
 20
254.040283203125
 30
0.0
 10
388.70758056640625
 20
253.80526733398437
 30
0.0
 10
388.99505615234375
 20
253.63027954101562
 30
0.0
 10
389.15005493164062
 20
253.56277465820313
 30
0.0
 10
389.31005859375
 20
253.51278686523437
 30
0.0
 10
389.47506713867187
 20
253.47528076171875
 30
0.0
 10
389.642578125
 20
253.45526123046875
 30
0.0
 10
389.81005859375
 20
253.45278930664062
 30
0.0
 10
389.98007202148437
 20
253.46527099609375
 30
0.0
 10
390.15005493164062
 20
253.49526977539062
 30
0.0
 10
390.31756591796875
 20
253.54278564453125
 30
0.0
 10
390.48007202148437
 20
253.60528564453125
 30
0.0
 10
390.64007568359375
 20
253.68777465820312
 30
0.0
 10
390.64007568359375
 20
253.68777465820312
 30
0.0
  0
LWPOLYLINE
  5
5A
100
AcDbEntity
  8
0
 62
-1
420
0
370
1
 48
1.0
  6
CONTINUOUS
100
AcDbPolyline
 90
54
 70
0
 10
511.03256225585937
 20
256.58529663085937
 30
0.0
 10
510.87255859375
 20
256.66781616210937
 30
0.0
 10
510.71005249023437
 20
256.73031616210937
 30
0.0
 10
510.54254150390625
 20
256.77780151367187
 30
0.0
 10
510.37255859375
 20
256.8052978515625
 30
0.0
 10
510.20504760742187
 20
256.81781005859375
 30
0.0
 10
510.03506469726562
 20
256.8153076171875
 30
0.0
 10
509.8675537109375
 20
256.79531860351562
 30
0.0
 10
509.70504760742187
 20
256.76031494140625
 30
0.0
 10
509.5450439453125
 20
256.70779418945312
 30
0.0
 10
509.39004516601562
 20
256.64031982421875
 30
0.0
 10
509.1025390625
 20
256.46530151367187
 30
0.0
 10
508.85003662109375
 20
256.23031616210937
 30
0.0
 10
508.64254760742187
 20
255.94281005859375
 30
0.0
 10
508.56005859375
 20
255.78280639648438
 30
0.0
 10
508.49755859375
 20
255.62030029296875
 30
0.0
 10
508.45004272460937
 20
255.45281982421875
 30
0.0
 10
508.4200439453125
 20
255.28530883789063
 30
0.0
 10
508.40756225585938
 20
255.11529541015625
 30
0.0
 10
508.41253662109375
 20
254.94781494140625
 30
0.0
 10
508.43255615234375
 20
254.78030395507812
 30
0.0
 10
508.46755981445312
 20
254.61529541015625
 30
0.0
 10
508.51754760742188
 20
254.45529174804687
 30
0.0
 10
508.58505249023437
 20
254.30029296875
 30
0.0
 10
508.76254272460937
 20
254.0128173828125
 30
0.0
 10
508.99505615234375
 20
253.76031494140625
 30
0.0
 10
509.28256225585937
 20
253.55279541015625
 30
0.0
 10
509.44256591796875
 20
253.47030639648437
 30
0.0
 10
509.60504150390625
 20
253.40780639648437
 30
0.0
 10
509.77255249023437
 20
253.36029052734375
 30
0.0
 10
509.94256591796875
 20
253.33279418945313
 30
0.0
 10
510.11004638671875
 20
253.3203125
 30
0.0
 10
510.28005981445312
 20
253.32281494140625
 30
0.0
 10
510.44754028320312
 20
253.34280395507812
 30
0.0
 10
510.61004638671875
 20
253.3778076171875
 30
0.0
 10
510.77005004882812
 20
253.4302978515625
 30
0.0
 10
510.925048828125
 20
253.49530029296875
 30
0.0
 10
511.21255493164063
 20
253.67279052734375
 30
0.0
 10
511.46505737304687
 20
253.90530395507812
 30
0.0
 10
511.67254638671875
 20
254.19281005859375
 30
0.0
 10
511.75506591796875
 20
254.35281372070312
 30
0.0
 10
511.81756591796875
 20
254.51531982421875
 30
0.0
 10
511.86505126953125
 20
254.68280029296875
 30
0.0
 10
511.89505004882812
 20
254.85281372070313
 30
0.0
 10
511.90756225585937
 20
255.02029418945312
 30
0.0
 10
511.90505981445312
 20
255.1903076171875
 30
0.0
 10
511.88504028320312
 20
255.35781860351562
 30
0.0
 10
511.84756469726562
 20
255.52029418945312
 30
0.0
 10
511.79754638671875
 20
255.6802978515625
 30
0.0
 10
511.73004150390625
 20
255.83529663085937
 30
0.0
 10
511.5550537109375
 20
256.12530517578125
 30
0.0
 10
511.32003784179687
 20
256.3778076171875
 30
0.0
 10
511.03256225585937
 20
256.58529663085937
 30
0.0
 10
511.03256225585937
 20
256.58529663085937
 30
0.0
  0
LWPOLYLINE
  5
5B
100
AcDbEntity
  8
0
 62
-1
420
0
370
1
 48
1.0
  6
CONTINUOUS
100
AcDbPolyline
 90
80
 70
0
 10
452.38726806640625
 20
242.75088500976562
 30
0.0
 10
455.05783081054687
 20
242.8414306640625
 30
0.0
 10
457.72494506835937
 20
242.998046875
 30
0.0
 10
460.38470458984375
 20
243.21975708007812
 30
0.0
 10
463.03445434570312
 20
243.50152587890625
 30
0.0
 10
465.677001953125
 20
243.848388671875
 30
0.0
 10
468.308349609375
 20
244.25927734375
 30
0.0
 10
470.92971801757812
 20
244.7303466796875
 30
0.0
 10
473.53622436523437
 20
245.264404296875
 30
0.0
 10
476.12783813476562
 20
245.8614501953125
 30
0.0
 10
478.70578002929687
 20
246.517578125
 30
0.0
 10
481.266357421875
 20
247.23822021484375
 30
0.0
 10
483.81072998046875
 20
248.0194091796875
 30
0.0
 10
486.33746337890625
 20
248.85879516601562
 30
0.0
 10
488.84176635742187
 20
249.7591552734375
 30
0.0
 10
491.32363891601562
 20
250.720458984375
 30
0.0
 10
493.78558349609375
 20
251.74136352539062
 30
0.0
 10
496.22360229492187
 20
252.82077026367188
 30
0.0
 10
498.63546752929687
 20
253.9600830078125
 30
0.0
 10
499.23004150390625
 20
254.25836181640625
 30
0.0
 10
484.1573486328125
 20
262.9605712890625
 30
0.0
 10
483.8927001953125
 20
262.83554077148437
 30
0.0
 10
482.10479736328125
 20
262.04397583007812
 30
0.0
 10
480.29937744140625
 20
261.29534912109375
 30
0.0
 10
478.47940063476562
 20
260.59033203125
 30
0.0
 10
476.642822265625
 20
259.93014526367187
 30
0.0
 10
474.7899169921875
 20
259.3145751953125
 30
0.0
 10
472.924072265625
 20
258.74172973632812
 30
0.0
 10
471.04632568359375
 20
258.2132568359375
 30
0.0
 10
469.15576171875
 20
257.73208618164062
 30
0.0
 10
467.25531005859375
 20
257.29425048828125
 30
0.0
 10
465.34384155273437
 20
256.90261840820312
 30
0.0
 10
463.42156982421875
 20
256.55712890625
 30
0.0
 10
461.49185180664062
 20
256.255859375
 30
0.0
 10
459.55401611328125
 20
256.00140380859375
 30
0.0
 10
457.61083984375
 20
255.79483032226562
 30
0.0
 10
455.66030883789062
 20
255.63229370117187
 30
0.0
 10
453.70452880859375
 20
255.51748657226563
 30
0.0
 10
451.74603271484375
 20
255.45098876953125
 30
0.0
 10
449.7830810546875
 20
255.42953491210937
 30
0.0
 10
447.8184814453125
 20
255.45819091796875
 30
0.0
 10
445.8521728515625
 20
255.53253173828125
 30
0.0
 10
443.88320922851562
 20
255.65518188476562
 30
0.0
 10
441.91635131835937
 20
255.82601928710938
 30
0.0
 10
439.94961547851562
 20
256.046142578125
 30
0.0
 10
437.98483276367187
 20
256.3143310546875
 30
0.0
 10
436.02487182617187
 20
256.63137817382812
 30
0.0
 10
434.06790161132812
 20
256.99838256835937
 30
0.0
 10
432.11288452148437
 20
257.41342163085937
 30
0.0
 10
430.16543579101562
 20
257.8782958984375
 30
0.0
 10
428.22369384765625
 20
258.3936767578125
 30
0.0
 10
426.28952026367188
 20
258.95883178710937
 30
0.0
 10
424.36386108398437
 20
259.5753173828125
 30
0.0
 10
422.44583129882812
 20
260.24139404296875
 30
0.0
 10
420.53799438476562
 20
260.95791625976562
 30
0.0
 10
418.64056396484375
 20
261.72476196289062
 30
0.0
 10
416.7554931640625
 20
262.54559326171875
 30
0.0
 10
415.56683349609375
 20
263.09774780273437
 30
0.0
 10
400.51385498046875
 20
254.40689086914063
 30
0.0
 10
402.11865234375
 20
253.6119384765625
 30
0.0
 10
404.67279052734375
 20
252.4254150390625
 30
0.0
 10
407.24346923828125
 20
251.30609130859375
 30
0.0
 10
409.83087158203125
 20
250.26031494140625
 30
0.0
 10
412.432373046875
 20
249.28323364257812
 30
0.0
 10
415.04800415039063
 20
248.37493896484375
 30
0.0
 10
417.673828125
 20
247.53427124023437
 30
0.0
 10
420.31137084960937
 20
246.763671875
 30
0.0
 10
422.95913696289062
 20
246.06088256835937
 30
0.0
 10
425.61471557617187
 20
245.42709350585937
 30
0.0
 10
428.28070068359375
 20
244.86099243164062
 30
0.0
 10
430.94931030273437
 20
244.36056518554687
 30
0.0
 10
433.62200927734375
 20
243.9281005859375
 30
0.0
 10
436.30120849609375
 20
243.56240844726562
 30
0.0
 10
438.98309326171875
 20
243.26239013671875
 30
0.0
 10
441.665283203125
 20
243.02938842773437
 30
0.0
 10
444.35006713867187
 20
242.86203002929687
 30
0.0
 10
447.031494140625
 20
242.76065063476562
 30
0.0
 10
449.71044921875
 20
242.72149658203125
 30
0.0
 10
452.38726806640625
 20
242.75088500976562
 30
0.0
 10
452.38726806640625
 20
242.75088500976562
 30
0.0
  0
LWPOLYLINE
  5
5C
100
AcDbEntity
  8
0
 62
-1
420
0
370
1
 48
1.0
  6
CONTINUOUS
100
AcDbPolyline
 90
78
 70
0
 10
409.65127563476562
 20
273.53872680664062
 30
0.0
 10
409.72793579101562
 20
274.42153930664062
 30
0.0
 10
409.94638061523437
 20
276.38934326171875
 30
0.0
 10
410.2161865234375
 20
278.35299682617188
 30
0.0
 10
410.53158569335938
 20
280.31405639648437
 30
0.0
 10
410.89859008789063
 20
282.27099609375
 30
0.0
 10
411.31369018554687
 20
284.22598266601562
 30
0.0
 10
411.77850341796875
 20
286.1734619140625
 30
0.0
 10
412.29391479492187
 20
288.11514282226562
 30
0.0
 10
412.85903930664062
 20
290.04934692382812
 30
0.0
 10
413.47549438476562
 20
291.97491455078125
 30
0.0
 10
414.14151000976562
 20
293.89306640625
 30
0.0
 10
414.8580322265625
 20
295.80081176757812
 30
0.0
 10
415.62496948242187
 20
297.69830322265625
 30
0.0
 10
416.44570922851562
 20
299.58340454101562
 30
0.0
 10
417.31585693359375
 20
301.45648193359375
 30
0.0
 10
418.23806762695312
 20
303.31820678710937
 30
0.0
 10
419.21234130859375
 20
305.16412353515625
 30
0.0
 10
420.23837280273437
 20
306.99407958984375
 30
0.0
 10
421.31024169921875
 20
308.7977294921875
 30
0.0
 10
422.42166137695312
 20
310.56423950195312
 30
0.0
 10
423.57278442382812
 20
312.29385375976562
 30
0.0
 10
424.759765625
 20
313.98394775390625
 30
0.0
 10
425.98095703125
 20
315.63555908203125
 30
0.0
 10
427.24179077148437
 20
317.25021362304688
 30
0.0
 10
428.5357666015625
 20
318.82464599609375
 30
0.0
 10
429.86273193359375
 20
320.35873413085937
 30
0.0
 10
431.22216796875
 20
321.85546875
 30
0.0
 10
432.6146240234375
 20
323.31198120117187
 30
0.0
 10
434.03851318359375
 20
324.72921752929687
 30
0.0
 10
435.49362182617187
 20
326.10733032226562
 30
0.0
 10
436.97808837890625
 20
327.44253540039062
 30
0.0
 10
438.48941040039062
 20
328.73886108398437
 30
0.0
 10
440.031005859375
 20
329.99417114257812
 30
0.0
 10
441.59661865234375
 20
331.20986938476562
 30
0.0
 10
443.19064331054687
 20
332.3809814453125
 30
0.0
 10
443.50909423828125
 20
332.60366821289062
 30
0.0
 10
443.50906372070313
 20
349.5853271484375
 30
0.0
 10
442.92715454101562
 20
349.19839477539062
 30
0.0
 10
440.72079467773437
 20
347.6553955078125
 30
0.0
 10
438.54721069335937
 20
346.0584716796875
 30
0.0
 10
436.4122314453125
 20
344.40066528320313
 30
0.0
 10
434.31002807617187
 20
342.68887329101562
 30
0.0
 10
432.24917602539062
 20
340.92117309570312
 30
0.0
 10
430.224853515625
 20
339.10043334960937
 30
0.0
 10
428.24053955078125
 20
337.22125244140625
 30
0.0
 10
426.2989501953125
 20
335.28866577148437
 30
0.0
 10
424.40008544921875
 20
333.30245971679687
 30
0.0
 10
422.54635620117187
 20
331.26150512695312
 30
0.0
 10
420.73681640625
 20
329.1695556640625
 30
0.0
 10
418.97232055664062
 20
327.02264404296875
 30
0.0
 10
417.25299072265625
 20
324.82086181640625
 30
0.0
 10
415.58782958984375
 20
322.568603515625
 30
0.0
 10
413.9691162109375
 20
320.26388549804687
 30
0.0
 10
412.3994140625
 20
317.90536499023437
 30
0.0
 10
410.88375854492187
 20
315.496337890625
 30
0.0
 10
409.42221069335937
 20
313.03701782226562
 30
0.0
 10
408.0230712890625
 20
310.54147338867187
 30
0.0
 10
406.69464111328125
 20
308.02438354492187
 30
0.0
 10
405.43707275390625
 20
305.48565673828125
 30
0.0
 10
404.25048828125
 20
302.93148803710938
 30
0.0
 10
403.13116455078125
 20
300.36090087890625
 30
0.0
 10
402.08547973632812
 20
297.77337646484375
 30
0.0
 10
401.10842895507812
 20
295.17193603515625
 30
0.0
 10
400.2000732421875
 20
292.55630493164062
 30
0.0
 10
399.35943603515625
 20
289.93045043945312
 30
0.0
 10
398.58880615234375
 20
287.29296875
 30
0.0
 10
397.88595581054687
 20
284.64517211914062
 30
0.0
 10
397.252197265625
 20
281.98956298828125
 30
0.0
 10
396.68612670898437
 20
279.32357788085938
 30
0.0
 10
396.1856689453125
 20
276.655029296875
 30
0.0
 10
395.75564575195312
 20
273.98095703125
 30
0.0
 10
395.38766479492187
 20
271.30322265625
 30
0.0
 10
395.08987426757812
 20
268.619873046875
 30
0.0
 10
394.85690307617187
 20
265.93771362304687
 30
0.0
 10
394.79513549804687
 20
264.96151733398437
 30
0.0
 10
409.65127563476562
 20
273.53872680664062
 30
0.0
 10
409.65127563476562
 20
273.53872680664062
 30
0.0
  0
LWPOLYLINE
  5
5D
100
AcDbEntity
  8
0
 62
-1
420
0
370
1
 48
1.0
  6
CONTINUOUS
100
AcDbPolyline
 90
80
 70
0
 10
505.19219970703125
 20
265.31121826171875
 30
0.0
 10
504.9705810546875
 20
267.97097778320312
 30
0.0
 10
504.68637084960937
 20
270.62210083007812
 30
0.0
 10
504.33950805664062
 20
273.26461791992187
 30
0.0
 10
503.93246459960937
 20
275.89703369140625
 30
0.0
 10
503.46002197265625
 20
278.5159912109375
 30
0.0
 10
502.9259033203125
 20
281.12249755859375
 30
0.0
 10
502.328857421875
 20
283.71417236328125
 30
0.0
 10
501.67031860351562
 20
286.29336547851562
 30
0.0
 10
500.9510498046875
 20
288.8564453125
 30
0.0
 10
500.17218017578125
 20
291.39932250976563
 30
0.0
 10
499.3314208984375
 20
293.9237060546875
 30
0.0
 10
498.43118286132812
 20
296.42800903320312
 30
0.0
 10
497.4674072265625
 20
298.91131591796875
 30
0.0
 10
496.44656372070312
 20
301.37319946289062
 30
0.0
 10
495.36715698242187
 20
303.811279296875
 30
0.0
 10
494.22915649414062
 20
306.22555541992187
 30
0.0
 10
493.0299072265625
 20
308.6112060546875
 30
0.0
 10
491.7744140625
 20
310.97161865234375
 30
0.0
 10
490.45999145507812
 20
313.3021240234375
 30
0.0
 10
489.08804321289062
 20
315.60501098632812
 30
0.0
 10
487.65960693359375
 20
317.87649536132812
 30
0.0
 10
486.17083740234375
 20
320.11563110351562
 30
0.0
 10
484.62789916992187
 20
322.3218994140625
 30
0.0
 10
483.0308837890625
 20
324.49551391601562
 30
0.0
 10
481.37313842773437
 20
326.63037109375
 30
0.0
 10
479.661376953125
 20
328.73257446289062
 30
0.0
 10
477.8935546875
 20
330.79345703125
 30
0.0
 10
476.07272338867187
 20
332.81771850585937
 30
0.0
 10
474.19363403320312
 20
334.80209350585937
 30
0.0
 10
472.26104736328125
 20
336.74368286132812
 30
0.0
 10
470.27490234375
 20
338.642578125
 30
0.0
 10
468.23394775390625
 20
340.49627685546875
 30
0.0
 10
466.14190673828125
 20
342.30584716796875
 30
0.0
 10
463.99496459960937
 20
344.07034301757812
 30
0.0
 10
461.793212890625
 20
345.78961181640625
 30
0.0
 10
459.54098510742188
 20
347.45486450195312
 30
0.0
 10
457.23626708984375
 20
349.073486328125
 30
0.0
 10
455.50909423828125
 20
350.22311401367187
 30
0.0
 10
455.50912475585937
 20
333.27545166015625
 30
0.0
 10
456.99209594726562
 20
332.23385620117187
 30
0.0
 10
458.64373779296875
 20
331.01275634765625
 30
0.0
 10
460.25833129882812
 20
329.751953125
 30
0.0
 10
461.83282470703125
 20
328.45791625976562
 30
0.0
 10
463.36700439453125
 20
327.13095092773437
 30
0.0
 10
464.86370849609375
 20
325.77163696289062
 30
0.0
 10
466.32022094726562
 20
324.37905883789062
 30
0.0
 10
467.7374267578125
 20
322.95523071289062
 30
0.0
 10
469.11541748046875
 20
321.50009155273437
 30
0.0
 10
470.45071411132812
 20
320.01547241210937
 30
0.0
 10
471.74700927734375
 20
318.5042724609375
 30
0.0
 10
473.00244140625
 20
316.96261596679687
 30
0.0
 10
474.21804809570312
 20
315.39700317382812
 30
0.0
 10
475.3892822265625
 20
313.8031005859375
 30
0.0
 10
476.52069091796875
 20
312.18508911132812
 30
0.0
 10
477.61239624023437
 20
310.5430908203125
 30
0.0
 10
478.65994262695312
 20
308.87734985351563
 30
0.0
 10
479.66604614257812
 20
307.18856811523437
 30
0.0
 10
480.62994384765625
 20
305.4794921875
 30
0.0
 10
481.55062866210937
 20
303.74853515625
 30
0.0
 10
482.43017578125
 20
301.99908447265625
 30
0.0
 10
483.26461791992187
 20
300.22860717773437
 30
0.0
 10
484.0562744140625
 20
298.44070434570312
 30
0.0
 10
484.80484008789062
 20
296.63531494140625
 30
0.0
 10
485.5115966796875
 20
294.81423950195312
 30
0.0
 10
486.17178344726562
 20
292.97775268554688
 30
0.0
 10
486.78836059570312
 20
291.1265869140625
 30
0.0
 10
487.35946655273438
 20
289.26177978515625
 30
0.0
 10
487.88690185546875
 20
287.3822021484375
 30
0.0
 10
488.36993408203125
 20
285.49075317382812
 30
0.0
 10
488.80776977539062
 20
283.59017944335937
 30
0.0
 10
489.19937133789062
 20
281.6787109375
 30
0.0
 10
489.5458984375
 20
279.7581787109375
 30
0.0
 10
489.84439086914062
 20
277.82769775390625
 30
0.0
 10
490.09869384765625
 20
275.88986206054687
 30
0.0
 10
490.30718994140625
 20
273.94573974609375
 30
0.0
 10
490.36663818359375
 20
273.23193359375
 30
0.0
 10
505.23043823242187
 20
264.650390625
 30
0.0
 10
505.19219970703125
 20
265.31121826171875
 30
0.0
 10
505.19219970703125
 20
265.31121826171875
 30
0.0
  0
LWPOLYLINE
  5
5E
100
AcDbEntity
  8
0
 62
-1
420
0
370
1
 48
1.0
  6
CONTINUOUS
100
AcDbPolyline
 90
49
 70
0
 10
431.49996948242187
 20
315.08746337890625
 30
0.0
 10
431.50997924804687
 20
314.90997314453125
 30
0.0
 10
431.53497314453125
 20
314.7349853515625
 30
0.0
 10
431.57748413085937
 20
314.56747436523437
 30
0.0
 10
431.63748168945312
 20
314.407470703125
 30
0.0
 10
431.7974853515625
 20
314.1099853515625
 30
0.0
 10
432.01248168945312
 20
313.8499755859375
 30
0.0
 10
432.26998901367187
 20
313.63748168945312
 30
0.0
 10
432.56747436523437
 20
313.4749755859375
 30
0.0
 10
432.72998046875
 20
313.41748046875
 30
0.0
 10
432.8974609375
 20
313.37246704101562
 30
0.0
 10
433.06997680664062
 20
313.34747314453125
 30
0.0
 10
433.24996948242187
 20
313.33746337890625
 30
0.0
 10
433.42996215820312
 20
313.34747314453125
 30
0.0
 10
433.60247802734375
 20
313.37246704101562
 30
0.0
 10
433.76998901367187
 20
313.41748046875
 30
0.0
 10
433.93246459960937
 20
313.4749755859375
 30
0.0
 10
434.22998046875
 20
313.63748168945312
 30
0.0
 10
434.48748779296875
 20
313.8499755859375
 30
0.0
 10
434.70248413085937
 20
314.1099853515625
 30
0.0
 10
434.86248779296875
 20
314.407470703125
 30
0.0
 10
434.9224853515625
 20
314.56747436523437
 30
0.0
 10
434.9649658203125
 20
314.7349853515625
 30
0.0
 10
434.989990234375
 20
314.90997314453125
 30
0.0
 10
434.99996948242187
 20
315.08746337890625
 30
0.0
 10
434.989990234375
 20
315.26748657226563
 30
0.0
 10
434.9649658203125
 20
315.43997192382812
 30
0.0
 10
434.9224853515625
 20
315.60748291015625
 30
0.0
 10
434.86248779296875
 20
315.76998901367187
 30
0.0
 10
434.70248413085937
 20
316.06747436523437
 30
0.0
 10
434.48748779296875
 20
316.32498168945312
 30
0.0
 10
434.22998046875
 20
316.53997802734375
 30
0.0
 10
433.93246459960937
 20
316.69998168945312
 30
0.0
 10
433.76998901367187
 20
316.75997924804687
 30
0.0
 10
433.60247802734375
 20
316.802490234375
 30
0.0
 10
433.42996215820312
 20
316.82748413085937
 30
0.0
 10
433.24996948242187
 20
316.83746337890625
 30
0.0
 10
433.06997680664062
 20
316.82748413085937
 30
0.0
 10
432.8974609375
 20
316.802490234375
 30
0.0
 10
432.72998046875
 20
316.75997924804687
 30
0.0
 10
432.56747436523437
 20
316.69998168945312
 30
0.0
 10
432.26998901367187
 20
316.53997802734375
 30
0.0
 10
432.01248168945312
 20
316.32498168945312
 30
0.0
 10
431.7974853515625
 20
316.06747436523437
 30
0.0
 10
431.63748168945312
 20
315.76998901367187
 30
0.0
 10
431.57748413085937
 20
315.60748291015625
 30
0.0
 10
431.53497314453125
 20
315.43997192382812
 30
0.0
 10
431.50997924804687
 20
315.26748657226563
 30
0.0
 10
431.49996948242187
 20
315.08746337890625
 30
0.0
  0
LWPOLYLINE
  5
5F
100
AcDbEntity
  8
0
 62
-1
420
0
370
1
 48
1.0
  6
CONTINUOUS
100
AcDbPolyline
 90
49
 70
0
 10
464.99996948242187
 20
315.0899658203125
 30
0.0
 10
465.00997924804687
 20
314.90997314453125
 30
0.0
 10
465.03497314453125
 20
314.73748779296875
 30
0.0
 10
465.07748413085937
 20
314.56997680664062
 30
0.0
 10
465.13748168945312
 20
314.407470703125
 30
0.0
 10
465.2974853515625
 20
314.1099853515625
 30
0.0
 10
465.51248168945312
 20
313.85247802734375
 30
0.0
 10
465.76998901367187
 20
313.63748168945312
 30
0.0
 10
466.06747436523437
 20
313.47747802734375
 30
0.0
 10
466.22998046875
 20
313.41748046875
 30
0.0
 10
466.3974609375
 20
313.37496948242187
 30
0.0
 10
466.56997680664062
 20
313.3499755859375
 30
0.0
 10
466.74996948242187
 20
313.3399658203125
 30
0.0
 10
466.92996215820312
 20
313.3499755859375
 30
0.0
 10
467.10247802734375
 20
313.37496948242187
 30
0.0
 10
467.26998901367187
 20
313.41748046875
 30
0.0
 10
467.43246459960937
 20
313.47747802734375
 30
0.0
 10
467.72998046875
 20
313.63748168945312
 30
0.0
 10
467.98748779296875
 20
313.85247802734375
 30
0.0
 10
468.20248413085937
 20
314.1099853515625
 30
0.0
 10
468.36248779296875
 20
314.407470703125
 30
0.0
 10
468.4224853515625
 20
314.56997680664062
 30
0.0
 10
468.4649658203125
 20
314.73748779296875
 30
0.0
 10
468.48995971679687
 20
314.90997314453125
 30
0.0
 10
468.49996948242187
 20
315.0899658203125
 30
0.0
 10
468.48995971679687
 20
315.26998901367187
 30
0.0
 10
468.4649658203125
 20
315.44247436523437
 30
0.0
 10
468.4224853515625
 20
315.6099853515625
 30
0.0
 10
468.36248779296875
 20
315.77249145507812
 30
0.0
 10
468.20248413085937
 20
316.06997680664062
 30
0.0
 10
467.98748779296875
 20
316.32748413085937
 30
0.0
 10
467.72998046875
 20
316.54248046875
 30
0.0
 10
467.43246459960937
 20
316.70248413085937
 30
0.0
 10
467.26998901367187
 20
316.76248168945312
 30
0.0
 10
467.10247802734375
 20
316.80499267578125
 30
0.0
 10
466.92996215820312
 20
316.82998657226562
 30
0.0
 10
466.74996948242187
 20
316.8399658203125
 30
0.0
 10
466.56997680664062
 20
316.82998657226562
 30
0.0
 10
466.3974609375
 20
316.80499267578125
 30
0.0
 10
466.22998046875
 20
316.76248168945312
 30
0.0
 10
466.06747436523437
 20
316.70248413085937
 30
0.0
 10
465.76998901367187
 20
316.54248046875
 30
0.0
 10
465.51248168945312
 20
316.32748413085937
 30
0.0
 10
465.2974853515625
 20
316.06997680664062
 30
0.0
 10
465.13748168945312
 20
315.77249145507812
 30
0.0
 10
465.07748413085937
 20
315.6099853515625
 30
0.0
 10
465.03497314453125
 20
315.44247436523437
 30
0.0
 10
465.00997924804687
 20
315.26998901367187
 30
0.0
 10
464.99996948242187
 20
315.0899658203125
 30
0.0
  0
LWPOLYLINE
  5
60
100
AcDbEntity
  8
0
 62
-1
420
0
370
1
 48
1.0
  6
CONTINUOUS
100
AcDbPolyline
 90
49
 70
0
 10
431.49746704101562
 20
264.58749389648437
 30
0.0
 10
431.50747680664062
 20
264.407470703125
 30
0.0
 10
431.532470703125
 20
264.2349853515625
 30
0.0
 10
431.57748413085937
 20
264.06747436523437
 30
0.0
 10
431.63497924804687
 20
263.90496826171875
 30
0.0
 10
431.7974853515625
 20
263.60748291015625
 30
0.0
 10
432.00997924804687
 20
263.3499755859375
 30
0.0
 10
432.26998901367187
 20
263.13497924804688
 30
0.0
 10
432.56747436523437
 20
262.9749755859375
 30
0.0
 10
432.72747802734375
 20
262.91497802734375
 30
0.0
 10
432.89498901367187
 20
262.87246704101562
 30
0.0
 10
433.06997680664062
 20
262.84747314453125
 30
0.0
 10
433.24746704101562
 20
262.83749389648438
 30
0.0
 10
433.427490234375
 20
262.84747314453125
 30
0.0
 10
433.5999755859375
 20
262.87246704101562
 30
0.0
 10
433.76748657226562
 20
262.91497802734375
 30
0.0
 10
433.92996215820313
 20
262.9749755859375
 30
0.0
 10
434.22747802734375
 20
263.13497924804688
 30
0.0
 10
434.4849853515625
 20
263.3499755859375
 30
0.0
 10
434.69998168945312
 20
263.60748291015625
 30
0.0
 10
434.8599853515625
 20
263.90496826171875
 30
0.0
 10
434.91998291015625
 20
264.06747436523437
 30
0.0
 10
434.96246337890625
 20
264.2349853515625
 30
0.0
 10
434.98748779296875
 20
264.407470703125
 30
0.0
 10
434.99746704101562
 20
264.58749389648437
 30
0.0
 10
434.98748779296875
 20
264.76748657226562
 30
0.0
 10
434.96246337890625
 20
264.93997192382812
 30
0.0
 10
434.91998291015625
 20
265.10748291015625
 30
0.0
 10
434.8599853515625
 20
265.26998901367187
 30
0.0
 10
434.69998168945312
 20
265.56747436523437
 30
0.0
 10
434.4849853515625
 20
265.82498168945312
 30
0.0
 10
434.22747802734375
 20
266.03997802734375
 30
0.0
 10
433.92996215820313
 20
266.19998168945312
 30
0.0
 10
433.76748657226562
 20
266.25997924804687
 30
0.0
 10
433.5999755859375
 20
266.302490234375
 30
0.0
 10
433.427490234375
 20
266.32748413085937
 30
0.0
 10
433.24746704101562
 20
266.33749389648437
 30
0.0
 10
433.06997680664062
 20
266.32748413085937
 30
0.0
 10
432.89498901367187
 20
266.302490234375
 30
0.0
 10
432.72747802734375
 20
266.25997924804687
 30
0.0
 10
432.56747436523437
 20
266.19998168945312
 30
0.0
 10
432.26998901367187
 20
266.03997802734375
 30
0.0
 10
432.00997924804687
 20
265.82498168945312
 30
0.0
 10
431.7974853515625
 20
265.56747436523437
 30
0.0
 10
431.63497924804687
 20
265.26998901367187
 30
0.0
 10
431.57748413085937
 20
265.10748291015625
 30
0.0
 10
431.532470703125
 20
264.93997192382812
 30
0.0
 10
431.50747680664062
 20
264.76748657226562
 30
0.0
 10
431.49746704101562
 20
264.58749389648437
 30
0.0
  0
LWPOLYLINE
  5
61
100
AcDbEntity
  8
0
 62
-1
420
0
370
1
 48
1.0
  6
CONTINUOUS
100
AcDbPolyline
 90
49
 70
0
 10
464.99996948242187
 20
264.6524658203125
 30
0.0
 10
465.00997924804687
 20
264.47247314453125
 30
0.0
 10
465.03497314453125
 20
264.29998779296875
 30
0.0
 10
465.07748413085937
 20
264.13247680664062
 30
0.0
 10
465.13748168945312
 20
263.969970703125
 30
0.0
 10
465.2974853515625
 20
263.6724853515625
 30
0.0
 10
465.51248168945312
 20
263.41497802734375
 30
0.0
 10
465.76998901367187
 20
263.19998168945312
 30
0.0
 10
466.06747436523437
 20
263.03997802734375
 30
0.0
 10
466.22998046875
 20
262.97998046875
 30
0.0
 10
466.3974609375
 20
262.93746948242187
 30
0.0
 10
466.56997680664062
 20
262.9124755859375
 30
0.0
 10
466.74996948242187
 20
262.9024658203125
 30
0.0
 10
466.92996215820312
 20
262.9124755859375
 30
0.0
 10
467.10247802734375
 20
262.93746948242187
 30
0.0
 10
467.26998901367187
 20
262.97998046875
 30
0.0
 10
467.43246459960937
 20
263.03997802734375
 30
0.0
 10
467.72998046875
 20
263.19998168945312
 30
0.0
 10
467.98748779296875
 20
263.41497802734375
 30
0.0
 10
468.20248413085937
 20
263.6724853515625
 30
0.0
 10
468.36248779296875
 20
263.969970703125
 30
0.0
 10
468.4224853515625
 20
264.13247680664062
 30
0.0
 10
468.4649658203125
 20
264.29998779296875
 30
0.0
 10
468.48995971679687
 20
264.47247314453125
 30
0.0
 10
468.49996948242187
 20
264.6524658203125
 30
0.0
 10
468.48995971679687
 20
264.83248901367187
 30
0.0
 10
468.4649658203125
 20
265.00497436523437
 30
0.0
 10
468.4224853515625
 20
265.1724853515625
 30
0.0
 10
468.36248779296875
 20
265.33499145507812
 30
0.0
 10
468.20248413085937
 20
265.63247680664062
 30
0.0
 10
467.98748779296875
 20
265.88998413085937
 30
0.0
 10
467.72998046875
 20
266.10498046875
 30
0.0
 10
467.43246459960937
 20
266.26498413085937
 30
0.0
 10
467.26998901367187
 20
266.32498168945312
 30
0.0
 10
467.10247802734375
 20
266.36749267578125
 30
0.0
 10
466.92996215820312
 20
266.39248657226562
 30
0.0
 10
466.74996948242187
 20
266.4024658203125
 30
0.0
 10
466.56997680664062
 20
266.39248657226562
 30
0.0
 10
466.3974609375
 20
266.36749267578125
 30
0.0
 10
466.22998046875
 20
266.32498168945312
 30
0.0
 10
466.06747436523437
 20
266.26498413085937
 30
0.0
 10
465.76998901367187
 20
266.10498046875
 30
0.0
 10
465.51248168945312
 20
265.88998413085937
 30
0.0
 10
465.2974853515625
 20
265.63247680664062
 30
0.0
 10
465.13748168945312
 20
265.33499145507812
 30
0.0
 10
465.07748413085937
 20
265.1724853515625
 30
0.0
 10
465.03497314453125
 20
265.00497436523437
 30
0.0
 10
465.00997924804687
 20
264.83248901367187
 30
0.0
 10
464.99996948242187
 20
264.6524658203125
 30
0.0
  0
ENDSEC
  0
SECTION
  2
OBJECTS
  0
DICTIONARY
  5
C
100
AcDbDictionary
280
0
281
1
  3
ACAD_GROUP
350
D
  3
ACAD_LAYOUT
350
1A
  3
ACAD_MLINESTYLE
350
17
  3
ACAD_PLOTSETTINGS
350
19
  3
ACAD_PLOTSTYLENAME
350
E
  3
AcDbVariableDictionary
350
62
  0
DICTIONARY
  5
D
100
AcDbDictionary
280
0
281
1
  0
ACDBDICTIONARYWDFLT
  5
E
100
AcDbDictionary
281
1
  3
Normal
350
F
100
AcDbDictionaryWithDefault
340
F
  0
ACDBPLACEHOLDER
  5
F
  0
DICTIONARY
  5
17
100
AcDbDictionary
280
0
281
1
  3
Standard
350
18
  0
MLINESTYLE
  5
18
100
AcDbMlineStyle
  2
STANDARD
 70
0
  3

 62
256
 51
90.0
 52
90.0
 71
2
 49
0.5
 62
256
  6
BYLAYER
 49
-0.5
 62
256
  6
BYLAYER
  0
DICTIONARY
  5
19
100
AcDbDictionary
280
0
281
1
  0
DICTIONARY
  5
1A
100
AcDbDictionary
281
1
  3
Layout1
350
1E
  3
Layout2
350
26
  3
Model
350
22
  0
LAYOUT
  5
1E
100
AcDbPlotSettings
  1

  2
none_device
  4

  6

 40
0.0
 41
0.0
 42
0.0
 43
0.0
 44
0.0
 45
0.0
 46
0.0
 47
0.0
 48
0.0
 49
0.0
140
0.0
141
0.0
142
1.0
143
1.0
 70
688
 72
0
 73
0
 74
5
  7

 75
16
147
1.0
148
0.0
149
0.0
100
AcDbLayout
  1
Layout1
 70
1
 71
1
 10
0.0
 20
0.0
 11
420.0
 21
297.0
 12
0.0
 22
0.0
 32
0.0
 14
100000000000000000000.0
 24
100000000000000000000.0
 34
100000000000000000000.0
 15
-100000000000000000000.0
 25
-100000000000000000000.0
 35
-100000000000000000000.0
146
0.0
 13
0.0
 23
0.0
 33
0.0
 16
1.0
 26
0.0
 36
0.0
 17
0.0
 27
1.0
 37
0.0
 76
0
330
1B
  0
LAYOUT
  5
22
100
AcDbPlotSettings
  1

  2
none_device
  4

  6

 40
0.0
 41
0.0
 42
0.0
 43
0.0
 44
0.0
 45
0.0
 46
0.0
 47
0.0
 48
0.0
 49
0.0
140
0.0
141
0.0
142
1.0
143
1.0
 70
1712
 72
0
 73
0
 74
0
  7

 75
0
147
1.0
148
0.0
149
0.0
100
AcDbLayout
  1
Model
 70
1
 71
0
 10
0.0
 20
0.0
 11
12.0
 21
9.0
 12
0.0
 22
0.0
 32
0.0
 14
0.0
 24
0.0
 34
0.0
 15
0.0
 25
0.0
 35
0.0
146
0.0
 13
0.0
 23
0.0
 33
0.0
 16
1.0
 26
0.0
 36
0.0
 17
0.0
 27
1.0
 37
0.0
 76
0
330
1F
  0
LAYOUT
  5
26
100
AcDbPlotSettings
  1

  2
none_device
  4

  6

 40
0.0
 41
0.0
 42
0.0
 43
0.0
 44
0.0
 45
0.0
 46
0.0
 47
0.0
 48
0.0
 49
0.0
140
0.0
141
0.0
142
1.0
143
1.0
 70
688
 72
0
 73
0
 74
5
  7

 75
16
147
1.0
148
0.0
149
0.0
100
AcDbLayout
  1
Layout2
 70
1
 71
2
 10
0.0
 20
0.0
 11
12.0
 21
9.0
 12
0.0
 22
0.0
 32
0.0
 14
0.0
 24
0.0
 34
0.0
 15
0.0
 25
0.0
 35
0.0
146
0.0
 13
0.0
 23
0.0
 33
0.0
 16
1.0
 26
0.0
 36
0.0
 17
0.0
 27
1.0
 37
0.0
 76
0
330
23
  0
DICTIONARY
  5
62
100
AcDbDictionary
281
1
  3
DIMASSOC
350
64
  3
HIDETEXT
350
63
  0
DICTIONARYVAR
  5
63
100
DictionaryVariables
280
0
  1
2
  0
DICTIONARYVAR
  5
64
100
DictionaryVariables
280
0
  1
1
  0
ENDSEC
  0
EOF
