999
dxflib 3.17.0.0
  0
SECTION
  2
HEADER
  9
$ACADVER
  1
AC1015
  9
$HANDSEED
  5
FFFF
  9
$INSUNITS
 70
4
  9
$DIMEXE
 40
1.25
  9
$TEXTSTYLE
  7
Standard
  9
$LIMMIN
 10
0.0
 20
0.0
  0
ENDSEC
  0
SECTION
  2
TABLES
  0
TABLE
  2
VPORT
  5
8
100
AcDbSymbolTable
 70
1
  0
VPORT
  5
30
100
AcDbSymbolTableRecord
100
AcDbViewportTableRecord
  2
*Active
 70
0
 10
0.0
 20
0.0
 11
1.0
 21
1.0
 12
286.30555555555549
 22
148.5
 13
0.0
 23
0.0
 14
10.0
 24
10.0
 15
10.0
 25
10.0
 16
0.0
 26
0.0
 36
1.0
 17
0.0
 27
0.0
 37
0.0
 40
297.0
 41
1.92798353909465
 42
50.0
 43
0.0
 44
0.0
 50
0.0
 51
0.0
 71
0
 72
100
 73
1
 74
3
 75
1
 76
1
 77
0
 78
0
281
0
 65
1
110
0.0
120
0.0
130
0.0
111
1.0
121
0.0
131
0.0
112
0.0
122
1.0
132
0.0
 79
0
146
0.0
  0
ENDTAB
  0
TABLE
  2
LTYPE
  5
5
100
AcDbSymbolTable
 70
25
  0
LTYPE
  5
14
100
AcDbSymbolTableRecord
100
AcDbLinetypeTableRecord
  2
BYBLOCK
 70
0
  3

 72
65
 73
0
 40
0.0
  0
LTYPE
  5
15
100
AcDbSymbolTableRecord
100
AcDbLinetypeTableRecord
  2
BYLAYER
 70
0
  3

 72
65
 73
0
 40
0.0
  0
LTYPE
  5
16
100
AcDbSymbolTableRecord
100
AcDbLinetypeTableRecord
  2
CONTINUOUS
 70
0
  3
Solid line
 72
65
 73
0
 40
0.0
  0
LTYPE
  5
31
100
AcDbSymbolTableRecord
100
AcDbLinetypeTableRecord
  2
ACAD_ISO02W100
 70
0
  3

 72
65
 73
0
 40
0.0
  0
LTYPE
  5
32
100
AcDbSymbolTableRecord
100
AcDbLinetypeTableRecord
  2
ACAD_ISO03W100
 70
0
  3

 72
65
 73
0
 40
0.0
  0
LTYPE
  5
33
100
AcDbSymbolTableRecord
100
AcDbLinetypeTableRecord
  2
ACAD_ISO04W100
 70
0
  3

 72
65
 73
0
 40
0.0
  0
LTYPE
  5
34
100
AcDbSymbolTableRecord
100
AcDbLinetypeTableRecord
  2
ACAD_ISO05W100
 70
0
  3

 72
65
 73
0
 40
0.0
  0
LTYPE
  5
35
100
AcDbSymbolTableRecord
100
AcDbLinetypeTableRecord
  2
BORDER
 70
0
  3

 72
65
 73
0
 40
0.0
  0
LTYPE
  5
36
100
AcDbSymbolTableRecord
100
AcDbLinetypeTableRecord
  2
BORDER2
 70
0
  3

 72
65
 73
0
 40
0.0
  0
LTYPE
  5
37
100
AcDbSymbolTableRecord
100
AcDbLinetypeTableRecord
  2
BORDERX2
 70
0
  3

 72
65
 73
0
 40
0.0
  0
LTYPE
  5
38
100
AcDbSymbolTableRecord
100
AcDbLinetypeTableRecord
  2
CENTER
 70
0
  3

 72
65
 73
0
 40
0.0
  0
LTYPE
  5
39
100
AcDbSymbolTableRecord
100
AcDbLinetypeTableRecord
  2
CENTER2
 70
0
  3

 72
65
 73
0
 40
0.0
  0
LTYPE
  5
3A
100
AcDbSymbolTableRecord
100
AcDbLinetypeTableRecord
  2
CENTERX2
 70
0
  3

 72
65
 73
0
 40
0.0
  0
LTYPE
  5
3B
100
AcDbSymbolTableRecord
100
AcDbLinetypeTableRecord
  2
DASHDOT
 70
0
  3

 72
65
 73
0
 40
0.0
  0
LTYPE
  5
3C
100
AcDbSymbolTableRecord
100
AcDbLinetypeTableRecord
  2
DASHDOT2
 70
0
  3

 72
65
 73
0
 40
0.0
  0
LTYPE
  5
3D
100
AcDbSymbolTableRecord
100
AcDbLinetypeTableRecord
  2
DASHDOTX2
 70
0
  3

 72
65
 73
0
 40
0.0
  0
LTYPE
  5
3E
100
AcDbSymbolTableRecord
100
AcDbLinetypeTableRecord
  2
DASHED
 70
0
  3

 72
65
 73
0
 40
0.0
  0
LTYPE
  5
3F
100
AcDbSymbolTableRecord
100
AcDbLinetypeTableRecord
  2
DASHED2
 70
0
  3

 72
65
 73
0
 40
0.0
  0
LTYPE
  5
40
100
AcDbSymbolTableRecord
100
AcDbLinetypeTableRecord
  2
DASHEDX2
 70
0
  3

 72
65
 73
0
 40
0.0
  0
LTYPE
  5
41
100
AcDbSymbolTableRecord
100
AcDbLinetypeTableRecord
  2
DIVIDE
 70
0
  3

 72
65
 73
0
 40
0.0
  0
LTYPE
  5
42
100
AcDbSymbolTableRecord
100
AcDbLinetypeTableRecord
  2
DIVIDE2
 70
0
  3

 72
65
 73
0
 40
0.0
  0
LTYPE
  5
43
100
AcDbSymbolTableRecord
100
AcDbLinetypeTableRecord
  2
DIVIDEX2
 70
0
  3

 72
65
 73
0
 40
0.0
  0
LTYPE
  5
44
100
AcDbSymbolTableRecord
100
AcDbLinetypeTableRecord
  2
DOT
 70
0
  3

 72
65
 73
0
 40
0.0
  0
LTYPE
  5
45
100
AcDbSymbolTableRecord
100
AcDbLinetypeTableRecord
  2
DOT2
 70
0
  3

 72
65
 73
0
 40
0.0
  0
LTYPE
  5
46
100
AcDbSymbolTableRecord
100
AcDbLinetypeTableRecord
  2
DOTX2
 70
0
  3

 72
65
 73
0
 40
0.0
  0
ENDTAB
  0
TABLE
  2
LAYER
  5
2
100
AcDbSymbolTable
 70
1
  0
LAYER
  5
10
100
AcDbSymbolTableRecord
100
AcDbLayerTableRecord
  2
0
 70
0
 62
-1
420
0
  6
CONTINUOUS
370
1
390
F
  0
ENDTAB
  0
STYLE
  5
47
100
AcDbSymbolTableRecord
100
AcDbTextStyleTableRecord
  2

 70
0
 40
0.0
 41
0.0
 50
0.0
 71
0
 42
0.0
  3

  4

1001
ACAD
1000

1071
0
  0
TABLE
  2
VIEW
  5
6
100
AcDbSymbolTable
 70
0
  0
ENDTAB
  0
TABLE
  2
UCS
  5
7
100
AcDbSymbolTable
 70
0
  0
ENDTAB
  0
TABLE
  2
APPID
  5
9
100
AcDbSymbolTable
 70
1
  0
APPID
  5
12
100
AcDbSymbolTableRecord
100
AcDbRegAppTableRecord
  2
ACAD
 70
0
  0
ENDTAB
  0
TABLE
  2
DIMSTYLE
  5
A
100
AcDbSymbolTable
 70
1
100
AcDbDimStyleTable
 71
0
  0
DIMSTYLE
105
27
100
AcDbSymbolTableRecord
100
AcDbDimStyleTableRecord
  2
Standard
 41
1.0
 42
1.0
 43
3.75
 44
1.0
 70
0
 73
0
 74
0
 77
1
 78
8
140
1.0
141
2.5
143
0.03937007874016
147
1.0
171
3
172
1
271
2
272
2
274
3
278
44
283
0
284
8
340
464623D4
  0
ENDTAB
  0
TABLE
  2
BLOCK_RECORD
  5
1
100
AcDbSymbolTable
 70
1
  0
BLOCK_RECORD
  5
1F
100
AcDbSymbolTableRecord
100
AcDbBlockTableRecord
  2
*Model_Space
340
22
  0
BLOCK_RECORD
  5
1B
100
AcDbSymbolTableRecord
100
AcDbBlockTableRecord
  2
*Paper_Space
340
1E
  0
BLOCK_RECORD
  5
23
100
AcDbSymbolTableRecord
100
AcDbBlockTableRecord
  2
*Paper_Space0
340
26
  0
BLOCK_RECORD
  5
48
100
AcDbSymbolTableRecord
100
AcDbBlockTableRecord
  2
myblock1
340
0
  0
BLOCK_RECORD
  5
49
100
AcDbSymbolTableRecord
100
AcDbBlockTableRecord
  2
myblock2
340
0
  0
ENDTAB
  0
ENDSEC
  0
SECTION
  2
BLOCKS
  0
BLOCK
  5
20
100
AcDbEntity
  8
0
100
AcDbBlockBegin
  2
*Model_Space
 70
0
 10
0.0
 20
0.0
 30
0.0
  3
*Model_Space
  1

  0
ENDBLK
  5
21
100
AcDbEntity
  8
0
100
AcDbBlockEnd
  0
BLOCK
  5
1C
100
AcDbEntity
 67
1
  8
0
100
AcDbBlockBegin
  2
*Paper_Space
 70
0
 10
0.0
 20
0.0
 30
0.0
  3
*Paper_Space
  1

  0
ENDBLK
  5
1D
100
AcDbEntity
 67
1
  8
0
100
AcDbBlockEnd
  0
BLOCK
  5
24
100
AcDbEntity
  8
0
100
AcDbBlockBegin
  2
*Paper_Space0
 70
0
 10
0.0
 20
0.0
 30
0.0
  3
*Paper_Space0
  1

  0
ENDBLK
  5
25
100
AcDbEntity
  8
0
100
AcDbBlockEnd
  0
BLOCK
  5
4A
100
AcDbEntity
  8
0
100
AcDbBlockBegin
  2
myblock1
 70
0
 10
0.0
 20
0.0
 30
0.0
  3
myblock1
  1

  0
ENDBLK
  5
4B
100
AcDbEntity
  8
0
100
AcDbBlockEnd
  0
BLOCK
  5
4C
100
AcDbEntity
  8
0
100
AcDbBlockBegin
  2
myblock2
 70
0
 10
0.0
 20
0.0
 30
0.0
  3
myblock2
  1

  0
ENDBLK
  5
4D
100
AcDbEntity
  8
0
100
AcDbBlockEnd
  0
ENDSEC
  0
SECTION
  2
ENTITIES
  0
LWPOLYLINE
  5
4E
100
AcDbEntity
  8
0
 62
-1
420
0
370
1
 48
1.0
  6
CONTINUOUS
100
AcDbPolyline
 90
73
 70
0
 10
133.99998474121094
 20
172.50248718261719
 30
0.0
 10
134.00749206542969
 20
172.19248962402344
 30
0.0
 10
134.02998352050781
 20
171.88998413085937
 30
0.0
 10
134.12248229980469
 20
171.29249572753906
 30
0.0
 10
134.26998901367187
 20
170.71748352050781
 30
0.0
 10
134.47248840332031
 20
170.16749572753906
 30
0.0
 10
134.72499084472656
 20
169.64248657226562
 30
0.0
 10
135.02499389648437
 20
169.14749145507812
 30
0.0
 10
135.3699951171875
 20
168.68498229980469
 30
0.0
 10
135.75749206542969
 20
168.25999450683594
 30
0.0
 10
136.1824951171875
 20
167.87248229980469
 30
0.0
 10
136.64498901367187
 20
167.52748107910156
 30
0.0
 10
137.13998413085937
 20
167.22749328613281
 30
0.0
 10
137.66499328613281
 20
166.97499084472656
 30
0.0
 10
138.21499633789063
 20
166.77249145507812
 30
0.0
 10
138.78999328613281
 20
166.62498474121094
 30
0.0
 10
139.38748168945312
 20
166.53248596191406
 30
0.0
 10
139.68998718261719
 20
166.50999450683594
 30
0.0
 10
139.99998474121094
 20
166.50248718261719
 30
0.0
 10
140.3074951171875
 20
166.50999450683594
 30
0.0
 10
140.61248779296875
 20
166.53248596191406
 30
0.0
 10
141.20999145507812
 20
166.62498474121094
 30
0.0
 10
141.78498840332031
 20
166.77249145507812
 30
0.0
 10
142.33499145507812
 20
166.97499084472656
 30
0.0
 10
142.8599853515625
 20
167.22749328613281
 30
0.0
 10
143.35499572753906
 20
167.52748107910156
 30
0.0
 10
143.81498718261719
 20
167.87248229980469
 30
0.0
 10
144.24249267578125
 20
168.25999450683594
 30
0.0
 10
144.62998962402344
 20
168.68498229980469
 30
0.0
 10
144.97499084472656
 20
169.14749145507812
 30
0.0
 10
145.27499389648437
 20
169.64248657226562
 30
0.0
 10
145.52749633789062
 20
170.16749572753906
 30
0.0
 10
145.72999572753906
 20
170.71748352050781
 30
0.0
 10
145.87748718261719
 20
171.29249572753906
 30
0.0
 10
145.96748352050781
 20
171.88998413085937
 30
0.0
 10
145.99249267578125
 20
172.19248962402344
 30
0.0
 10
145.99998474121094
 20
172.50248718261719
 30
0.0
 10
145.99249267578125
 20
172.80998229980469
 30
0.0
 10
145.96998596191406
 20
173.114990234375
 30
0.0
 10
145.87748718261719
 20
173.71249389648437
 30
0.0
 10
145.72999572753906
 20
174.28749084472656
 30
0.0
 10
145.52749633789062
 20
174.83749389648437
 30
0.0
 10
145.27499389648437
 20
175.36248779296875
 30
0.0
 10
144.97499084472656
 20
175.85748291015625
 30
0.0
 10
144.62998962402344
 20
176.31748962402344
 30
0.0
 10
144.24249267578125
 20
176.7449951171875
 30
0.0
 10
143.81498718261719
 20
177.13249206542969
 30
0.0
 10
143.35499572753906
 20
177.47749328613281
 30
0.0
 10
142.8599853515625
 20
177.77748107910156
 30
0.0
 10
142.33499145507812
 20
178.02998352050781
 30
0.0
 10
141.78248596191406
 20
178.23248291015625
 30
0.0
 10
141.20748901367188
 20
178.37998962402344
 30
0.0
 10
140.61248779296875
 20
178.46998596191406
 30
0.0
 10
140.3074951171875
 20
178.4949951171875
 30
0.0
 10
139.99998474121094
 20
178.50248718261719
 30
0.0
 10
139.68998718261719
 20
178.4949951171875
 30
0.0
 10
139.38748168945312
 20
178.47248840332031
 30
0.0
 10
138.78999328613281
 20
178.37998962402344
 30
0.0
 10
138.21499633789063
 20
178.23248291015625
 30
0.0
 10
137.66499328613281
 20
178.02998352050781
 30
0.0
 10
137.13998413085937
 20
177.77748107910156
 30
0.0
 10
136.64498901367187
 20
177.47749328613281
 30
0.0
 10
136.1824951171875
 20
177.13249206542969
 30
0.0
 10
135.75749206542969
 20
176.7449951171875
 30
0.0
 10
135.3699951171875
 20
176.31748962402344
 30
0.0
 10
135.02499389648437
 20
175.85748291015625
 30
0.0
 10
134.72499084472656
 20
175.36248779296875
 30
0.0
 10
134.47248840332031
 20
174.83749389648437
 30
0.0
 10
134.26998901367187
 20
174.28498840332031
 30
0.0
 10
134.12248229980469
 20
173.70999145507812
 30
0.0
 10
134.02998352050781
 20
173.114990234375
 30
0.0
 10
134.00749206542969
 20
172.80998229980469
 30
0.0
 10
133.99998474121094
 20
172.50248718261719
 30
0.0
  0
LWPOLYLINE
  5
4F
100
AcDbEntity
  8
0
 62
-1
420
0
370
1
 48
1.0
  6
CONTINUOUS
100
AcDbPolyline
 90
33
 70
0
 10
135.09498596191406
 20
179.75498962402344
 30
0.0
 10
135.11248779296875
 20
179.57249450683594
 30
0.0
 10
135.16499328613281
 20
179.40498352050781
 30
0.0
 10
135.24998474121094
 20
179.25248718261719
 30
0.0
 10
135.3599853515625
 20
179.11749267578125
 30
0.0
 10
135.49249267578125
 20
179.00749206542969
 30
0.0
 10
135.64498901367187
 20
178.92498779296875
 30
0.0
 10
135.81498718261719
 20
178.87248229980469
 30
0.0
 10
135.9949951171875
 20
178.85499572753906
 30
0.0
 10
136.177490234375
 20
178.87248229980469
 30
0.0
 10
136.34498596191406
 20
178.92498779296875
 30
0.0
 10
136.49748229980469
 20
179.00749206542969
 30
0.0
 10
136.63249206542969
 20
179.11749267578125
 30
0.0
 10
136.74249267578125
 20
179.25248718261719
 30
0.0
 10
136.82498168945312
 20
179.40498352050781
 30
0.0
 10
136.87748718261719
 20
179.57249450683594
 30
0.0
 10
136.89498901367187
 20
179.75498962402344
 30
0.0
 10
136.87748718261719
 20
179.93498229980469
 30
0.0
 10
136.82498168945312
 20
180.10499572753906
 30
0.0
 10
136.74249267578125
 20
180.25749206542969
 30
0.0
 10
136.63249206542969
 20
180.38998413085937
 30
0.0
 10
136.49748229980469
 20
180.49998474121094
 30
0.0
 10
136.34498596191406
 20
180.58499145507812
 30
0.0
 10
136.177490234375
 20
180.63748168945312
 30
0.0
 10
135.9949951171875
 20
180.65498352050781
 30
0.0
 10
135.81498718261719
 20
180.63748168945312
 30
0.0
 10
135.64498901367187
 20
180.58499145507812
 30
0.0
 10
135.49249267578125
 20
180.49998474121094
 30
0.0
 10
135.3599853515625
 20
180.38998413085937
 30
0.0
 10
135.24998474121094
 20
180.25749206542969
 30
0.0
 10
135.16499328613281
 20
180.10499572753906
 30
0.0
 10
135.11248779296875
 20
179.93498229980469
 30
0.0
 10
135.09498596191406
 20
179.75498962402344
 30
0.0
  0
LWPOLYLINE
  5
50
100
AcDbEntity
  8
0
 62
-1
420
0
370
1
 48
1.0
  6
CONTINUOUS
100
AcDbPolyline
 90
33
 70
0
 10
143.09498596191406
 20
179.75248718261719
 30
0.0
 10
143.11248779296875
 20
179.56999206542969
 30
0.0
 10
143.16499328613281
 20
179.40248107910156
 30
0.0
 10
143.24748229980469
 20
179.24998474121094
 30
0.0
 10
143.35748291015625
 20
179.114990234375
 30
0.0
 10
143.49249267578125
 20
179.00498962402344
 30
0.0
 10
143.64498901367188
 20
178.9224853515625
 30
0.0
 10
143.81248474121094
 20
178.8699951171875
 30
0.0
 10
143.9949951171875
 20
178.85249328613281
 30
0.0
 10
144.177490234375
 20
178.8699951171875
 30
0.0
 10
144.34498596191406
 20
178.9224853515625
 30
0.0
 10
144.49748229980469
 20
179.00498962402344
 30
0.0
 10
144.63249206542969
 20
179.114990234375
 30
0.0
 10
144.74249267578125
 20
179.24998474121094
 30
0.0
 10
144.82498168945313
 20
179.40248107910156
 30
0.0
 10
144.87748718261719
 20
179.56999206542969
 30
0.0
 10
144.89498901367188
 20
179.75248718261719
 30
0.0
 10
144.87748718261719
 20
179.93498229980469
 30
0.0
 10
144.82498168945313
 20
180.10249328613281
 30
0.0
 10
144.74249267578125
 20
180.25498962402344
 30
0.0
 10
144.63249206542969
 20
180.38998413085937
 30
0.0
 10
144.49748229980469
 20
180.49998474121094
 30
0.0
 10
144.34498596191406
 20
180.58248901367187
 30
0.0
 10
144.177490234375
 20
180.63499450683594
 30
0.0
 10
143.9949951171875
 20
180.65248107910156
 30
0.0
 10
143.81248474121094
 20
180.63499450683594
 30
0.0
 10
143.64498901367188
 20
180.58248901367187
 30
0.0
 10
143.49249267578125
 20
180.49998474121094
 30
0.0
 10
143.35748291015625
 20
180.38998413085937
 30
0.0
 10
143.24748229980469
 20
180.25498962402344
 30
0.0
 10
143.16499328613281
 20
180.10249328613281
 30
0.0
 10
143.11248779296875
 20
179.93498229980469
 30
0.0
 10
143.09498596191406
 20
179.75248718261719
 30
0.0
  0
LWPOLYLINE
  5
51
100
AcDbEntity
  8
0
 62
-1
420
0
370
1
 48
1.0
  6
CONTINUOUS
100
AcDbPolyline
 90
33
 70
0
 10
135.09748840332031
 20
165.25749206542969
 30
0.0
 10
135.114990234375
 20
165.07498168945312
 30
0.0
 10
135.16749572753906
 20
164.90748596191406
 30
0.0
 10
135.24998474121094
 20
164.75498962402344
 30
0.0
 10
135.3599853515625
 20
164.6199951171875
 30
0.0
 10
135.4949951171875
 20
164.50999450683594
 30
0.0
 10
135.64749145507812
 20
164.427490234375
 30
0.0
 10
135.81498718261719
 20
164.37498474121094
 30
0.0
 10
135.99748229980469
 20
164.35748291015625
 30
0.0
 10
136.177490234375
 20
164.37498474121094
 30
0.0
 10
136.34748840332031
 20
164.427490234375
 30
0.0
 10
136.49998474121094
 20
164.50999450683594
 30
0.0
 10
136.63249206542969
 20
164.6199951171875
 30
0.0
 10
136.74249267578125
 20
164.75498962402344
 30
0.0
 10
136.82748413085937
 20
164.90748596191406
 30
0.0
 10
136.87998962402344
 20
165.07498168945312
 30
0.0
 10
136.89749145507812
 20
165.25749206542969
 30
0.0
 10
136.87998962402344
 20
165.43998718261719
 30
0.0
 10
136.82748413085937
 20
165.60748291015625
 30
0.0
 10
136.74249267578125
 20
165.75999450683594
 30
0.0
 10
136.63249206542969
 20
165.89498901367187
 30
0.0
 10
136.49998474121094
 20
166.00498962402344
 30
0.0
 10
136.34748840332031
 20
166.08749389648437
 30
0.0
 10
136.177490234375
 20
166.13998413085937
 30
0.0
 10
135.99748229980469
 20
166.15748596191406
 30
0.0
 10
135.81498718261719
 20
166.13998413085937
 30
0.0
 10
135.64749145507812
 20
166.08749389648437
 30
0.0
 10
135.4949951171875
 20
166.00498962402344
 30
0.0
 10
135.3599853515625
 20
165.89498901367187
 30
0.0
 10
135.24998474121094
 20
165.75999450683594
 30
0.0
 10
135.16749572753906
 20
165.60748291015625
 30
0.0
 10
135.114990234375
 20
165.43998718261719
 30
0.0
 10
135.09748840332031
 20
165.25749206542969
 30
0.0
  0
LWPOLYLINE
  5
52
100
AcDbEntity
  8
0
 62
-1
420
0
370
1
 48
1.0
  6
CONTINUOUS
100
AcDbPolyline
 90
33
 70
0
 10
143.09248352050781
 20
165.25498962402344
 30
0.0
 10
143.1099853515625
 20
165.07249450683594
 30
0.0
 10
143.16249084472656
 20
164.90498352050781
 30
0.0
 10
143.2449951171875
 20
164.75248718261719
 30
0.0
 10
143.35499572753906
 20
164.61749267578125
 30
0.0
 10
143.489990234375
 20
164.50749206542969
 30
0.0
 10
143.64248657226562
 20
164.42498779296875
 30
0.0
 10
143.80998229980469
 20
164.37248229980469
 30
0.0
 10
143.99249267578125
 20
164.35499572753906
 30
0.0
 10
144.17498779296875
 20
164.37248229980469
 30
0.0
 10
144.34248352050781
 20
164.42498779296875
 30
0.0
 10
144.4949951171875
 20
164.50749206542969
 30
0.0
 10
144.62998962402344
 20
164.61749267578125
 30
0.0
 10
144.739990234375
 20
164.75248718261719
 30
0.0
 10
144.82249450683594
 20
164.90498352050781
 30
0.0
 10
144.87498474121094
 20
165.07249450683594
 30
0.0
 10
144.89248657226562
 20
165.25498962402344
 30
0.0
 10
144.87498474121094
 20
165.43748474121094
 30
0.0
 10
144.82249450683594
 20
165.60499572753906
 30
0.0
 10
144.739990234375
 20
165.75749206542969
 30
0.0
 10
144.62998962402344
 20
165.89248657226562
 30
0.0
 10
144.4949951171875
 20
166.00248718261719
 30
0.0
 10
144.34248352050781
 20
166.08499145507812
 30
0.0
 10
144.17498779296875
 20
166.13748168945312
 30
0.0
 10
143.99249267578125
 20
166.15498352050781
 30
0.0
 10
143.80998229980469
 20
166.13748168945312
 30
0.0
 10
143.64248657226562
 20
166.08499145507812
 30
0.0
 10
143.489990234375
 20
166.00248718261719
 30
0.0
 10
143.35499572753906
 20
165.89248657226562
 30
0.0
 10
143.2449951171875
 20
165.75749206542969
 30
0.0
 10
143.16249084472656
 20
165.60499572753906
 30
0.0
 10
143.1099853515625
 20
165.43748474121094
 30
0.0
 10
143.09248352050781
 20
165.25498962402344
 30
0.0
  0
LWPOLYLINE
  5
53
100
AcDbEntity
  8
0
 62
-1
420
0
370
1
 48
1.0
  6
CONTINUOUS
100
AcDbPolyline
 90
5
 70
0
 10
128.5
 20
184.0
 30
0.0
 10
151.5
 20
184.0
 30
0.0
 10
151.5
 20
161.00001525878906
 30
0.0
 10
128.5
 20
161.00001525878906
 30
0.0
 10
128.5
 20
184.0
 30
0.0
  0
LWPOLYLINE
  5
54
100
AcDbEntity
  8
0
 62
-1
420
0
370
1
 48
1.0
  6
CONTINUOUS
100
AcDbPolyline
 90
49
 70
0
 10
130.49998474121094
 20
180.25248718261719
 30
0.0
 10
130.50999450683594
 20
180.07498168945313
 30
0.0
 10
130.53498840332031
 20
179.89999389648437
 30
0.0
 10
130.57748413085937
 20
179.73248291015625
 30
0.0
 10
130.63749694824219
 20
179.57249450683594
 30
0.0
 10
130.7974853515625
 20
179.27499389648437
 30
0.0
 10
131.01249694824219
 20
179.01748657226562
 30
0.0
 10
131.26998901367187
 20
178.802490234375
 30
0.0
 10
131.56748962402344
 20
178.64248657226562
 30
0.0
 10
131.72999572753906
 20
178.58248901367187
 30
0.0
 10
131.89749145507812
 20
178.53999328613281
 30
0.0
 10
132.06999206542969
 20
178.51498413085937
 30
0.0
 10
132.24998474121094
 20
178.50498962402344
 30
0.0
 10
132.427490234375
 20
178.51498413085937
 30
0.0
 10
132.60249328613281
 20
178.53999328613281
 30
0.0
 10
132.76998901367187
 20
178.58248901367187
 30
0.0
 10
132.92999267578125
 20
178.64248657226562
 30
0.0
 10
133.22749328613281
 20
178.802490234375
 30
0.0
 10
133.48748779296875
 20
179.01748657226562
 30
0.0
 10
133.69999694824219
 20
179.27499389648437
 30
0.0
 10
133.86248779296875
 20
179.57249450683594
 30
0.0
 10
133.91998291015625
 20
179.73248291015625
 30
0.0
 10
133.96499633789063
 20
179.89999389648437
 30
0.0
 10
133.989990234375
 20
180.07498168945313
 30
0.0
 10
133.99998474121094
 20
180.25248718261719
 30
0.0
 10
133.989990234375
 20
180.4324951171875
 30
0.0
 10
133.96499633789063
 20
180.60499572753906
 30
0.0
 10
133.91998291015625
 20
180.77249145507812
 30
0.0
 10
133.86248779296875
 20
180.93498229980469
 30
0.0
 10
133.69999694824219
 20
181.23248291015625
 30
0.0
 10
133.48748779296875
 20
181.489990234375
 30
0.0
 10
133.22749328613281
 20
181.70498657226562
 30
0.0
 10
132.92999267578125
 20
181.864990234375
 30
0.0
 10
132.76998901367187
 20
181.92498779296875
 30
0.0
 10
132.60249328613281
 20
181.96748352050781
 30
0.0
 10
132.427490234375
 20
181.99249267578125
 30
0.0
 10
132.24998474121094
 20
182.00248718261719
 30
0.0
 10
132.06999206542969
 20
181.99249267578125
 30
0.0
 10
131.89749145507812
 20
181.96748352050781
 30
0.0
 10
131.72999572753906
 20
181.92498779296875
 30
0.0
 10
131.56748962402344
 20
181.864990234375
 30
0.0
 10
131.26998901367187
 20
181.70498657226562
 30
0.0
 10
131.01249694824219
 20
181.489990234375
 30
0.0
 10
130.7974853515625
 20
181.23248291015625
 30
0.0
 10
130.63749694824219
 20
180.93498229980469
 30
0.0
 10
130.57748413085937
 20
180.77249145507812
 30
0.0
 10
130.53498840332031
 20
180.60499572753906
 30
0.0
 10
130.50999450683594
 20
180.4324951171875
 30
0.0
 10
130.49998474121094
 20
180.25248718261719
 30
0.0
  0
LWPOLYLINE
  5
55
100
AcDbEntity
  8
0
 62
-1
420
0
370
1
 48
1.0
  6
CONTINUOUS
100
AcDbPolyline
 90
49
 70
0
 10
145.99998474121094
 20
180.25248718261719
 30
0.0
 10
146.00999450683594
 20
180.07498168945313
 30
0.0
 10
146.03498840332031
 20
179.89999389648437
 30
0.0
 10
146.07748413085937
 20
179.73248291015625
 30
0.0
 10
146.13748168945312
 20
179.57249450683594
 30
0.0
 10
146.2974853515625
 20
179.27499389648437
 30
0.0
 10
146.51248168945312
 20
179.01748657226562
 30
0.0
 10
146.76998901367187
 20
178.802490234375
 30
0.0
 10
147.06748962402344
 20
178.64248657226562
 30
0.0
 10
147.22999572753906
 20
178.58248901367187
 30
0.0
 10
147.39749145507812
 20
178.53999328613281
 30
0.0
 10
147.56999206542969
 20
178.51498413085937
 30
0.0
 10
147.74998474121094
 20
178.50498962402344
 30
0.0
 10
147.927490234375
 20
178.51498413085937
 30
0.0
 10
148.10249328613281
 20
178.53999328613281
 30
0.0
 10
148.26998901367187
 20
178.58248901367187
 30
0.0
 10
148.42999267578125
 20
178.64248657226562
 30
0.0
 10
148.72749328613281
 20
178.802490234375
 30
0.0
 10
148.98748779296875
 20
179.01748657226562
 30
0.0
 10
149.19998168945312
 20
179.27499389648437
 30
0.0
 10
149.36248779296875
 20
179.57249450683594
 30
0.0
 10
149.41998291015625
 20
179.73248291015625
 30
0.0
 10
149.46499633789063
 20
179.89999389648437
 30
0.0
 10
149.489990234375
 20
180.07498168945313
 30
0.0
 10
149.49998474121094
 20
180.25248718261719
 30
0.0
 10
149.489990234375
 20
180.4324951171875
 30
0.0
 10
149.46499633789063
 20
180.60499572753906
 30
0.0
 10
149.41998291015625
 20
180.77249145507812
 30
0.0
 10
149.36248779296875
 20
180.93498229980469
 30
0.0
 10
149.19998168945312
 20
181.23248291015625
 30
0.0
 10
148.98748779296875
 20
181.489990234375
 30
0.0
 10
148.72749328613281
 20
181.70498657226562
 30
0.0
 10
148.42999267578125
 20
181.864990234375
 30
0.0
 10
148.26998901367187
 20
181.92498779296875
 30
0.0
 10
148.10249328613281
 20
181.96748352050781
 30
0.0
 10
147.927490234375
 20
181.99249267578125
 30
0.0
 10
147.74998474121094
 20
182.00248718261719
 30
0.0
 10
147.56999206542969
 20
181.99249267578125
 30
0.0
 10
147.39749145507812
 20
181.96748352050781
 30
0.0
 10
147.22999572753906
 20
181.92498779296875
 30
0.0
 10
147.06748962402344
 20
181.864990234375
 30
0.0
 10
146.76998901367187
 20
181.70498657226562
 30
0.0
 10
146.51248168945312
 20
181.489990234375
 30
0.0
 10
146.2974853515625
 20
181.23248291015625
 30
0.0
 10
146.13748168945312
 20
180.93498229980469
 30
0.0
 10
146.07748413085937
 20
180.77249145507812
 30
0.0
 10
146.03498840332031
 20
180.60499572753906
 30
0.0
 10
146.00999450683594
 20
180.4324951171875
 30
0.0
 10
145.99998474121094
 20
180.25248718261719
 30
0.0
  0
LWPOLYLINE
  5
56
100
AcDbEntity
  8
0
 62
-1
420
0
370
1
 48
1.0
  6
CONTINUOUS
100
AcDbPolyline
 90
49
 70
0
 10
130.49998474121094
 20
164.75498962402344
 30
0.0
 10
130.50999450683594
 20
164.57748413085937
 30
0.0
 10
130.53498840332031
 20
164.40248107910156
 30
0.0
 10
130.57748413085937
 20
164.2349853515625
 30
0.0
 10
130.63749694824219
 20
164.07498168945312
 30
0.0
 10
130.7974853515625
 20
163.77749633789062
 30
0.0
 10
131.01249694824219
 20
163.51998901367188
 30
0.0
 10
131.26998901367187
 20
163.30499267578125
 30
0.0
 10
131.56748962402344
 20
163.14498901367187
 30
0.0
 10
131.72999572753906
 20
163.08499145507812
 30
0.0
 10
131.89749145507812
 20
163.04249572753906
 30
0.0
 10
132.06999206542969
 20
163.01748657226562
 30
0.0
 10
132.24998474121094
 20
163.00749206542969
 30
0.0
 10
132.427490234375
 20
163.01748657226562
 30
0.0
 10
132.60249328613281
 20
163.04249572753906
 30
0.0
 10
132.76998901367187
 20
163.08499145507812
 30
0.0
 10
132.92999267578125
 20
163.14498901367187
 30
0.0
 10
133.22749328613281
 20
163.30499267578125
 30
0.0
 10
133.48748779296875
 20
163.51998901367188
 30
0.0
 10
133.69999694824219
 20
163.77749633789062
 30
0.0
 10
133.86248779296875
 20
164.07498168945312
 30
0.0
 10
133.91998291015625
 20
164.2349853515625
 30
0.0
 10
133.96499633789063
 20
164.40248107910156
 30
0.0
 10
133.989990234375
 20
164.57748413085937
 30
0.0
 10
133.99998474121094
 20
164.75498962402344
 30
0.0
 10
133.989990234375
 20
164.93498229980469
 30
0.0
 10
133.96499633789063
 20
165.10748291015625
 30
0.0
 10
133.91998291015625
 20
165.27499389648437
 30
0.0
 10
133.86248779296875
 20
165.43748474121094
 30
0.0
 10
133.69999694824219
 20
165.7349853515625
 30
0.0
 10
133.48748779296875
 20
165.99249267578125
 30
0.0
 10
133.22749328613281
 20
166.20748901367187
 30
0.0
 10
132.92999267578125
 20
166.36749267578125
 30
0.0
 10
132.76998901367187
 20
166.427490234375
 30
0.0
 10
132.60249328613281
 20
166.46998596191406
 30
0.0
 10
132.427490234375
 20
166.4949951171875
 30
0.0
 10
132.24998474121094
 20
166.50498962402344
 30
0.0
 10
132.06999206542969
 20
166.4949951171875
 30
0.0
 10
131.89749145507812
 20
166.46998596191406
 30
0.0
 10
131.72999572753906
 20
166.427490234375
 30
0.0
 10
131.56748962402344
 20
166.36749267578125
 30
0.0
 10
131.26998901367187
 20
166.20748901367187
 30
0.0
 10
131.01249694824219
 20
165.99249267578125
 30
0.0
 10
130.7974853515625
 20
165.7349853515625
 30
0.0
 10
130.63749694824219
 20
165.43748474121094
 30
0.0
 10
130.57748413085937
 20
165.27499389648437
 30
0.0
 10
130.53498840332031
 20
165.10748291015625
 30
0.0
 10
130.50999450683594
 20
164.93498229980469
 30
0.0
 10
130.49998474121094
 20
164.75498962402344
 30
0.0
  0
LWPOLYLINE
  5
57
100
AcDbEntity
  8
0
 62
-1
420
0
370
1
 48
1.0
  6
CONTINUOUS
100
AcDbPolyline
 90
49
 70
0
 10
145.99998474121094
 20
164.75498962402344
 30
0.0
 10
146.00999450683594
 20
164.57748413085937
 30
0.0
 10
146.03498840332031
 20
164.40248107910156
 30
0.0
 10
146.07748413085937
 20
164.2349853515625
 30
0.0
 10
146.13748168945312
 20
164.07498168945312
 30
0.0
 10
146.2974853515625
 20
163.77749633789062
 30
0.0
 10
146.51248168945312
 20
163.51998901367188
 30
0.0
 10
146.76998901367187
 20
163.30499267578125
 30
0.0
 10
147.06748962402344
 20
163.14498901367187
 30
0.0
 10
147.22999572753906
 20
163.08499145507812
 30
0.0
 10
147.39749145507812
 20
163.04249572753906
 30
0.0
 10
147.56999206542969
 20
163.01748657226562
 30
0.0
 10
147.74998474121094
 20
163.00749206542969
 30
0.0
 10
147.927490234375
 20
163.01748657226562
 30
0.0
 10
148.10249328613281
 20
163.04249572753906
 30
0.0
 10
148.26998901367187
 20
163.08499145507812
 30
0.0
 10
148.42999267578125
 20
163.14498901367187
 30
0.0
 10
148.72749328613281
 20
163.30499267578125
 30
0.0
 10
148.98748779296875
 20
163.51998901367188
 30
0.0
 10
149.19998168945312
 20
163.77749633789062
 30
0.0
 10
149.36248779296875
 20
164.07498168945312
 30
0.0
 10
149.41998291015625
 20
164.2349853515625
 30
0.0
 10
149.46499633789063
 20
164.40248107910156
 30
0.0
 10
149.489990234375
 20
164.57748413085937
 30
0.0
 10
149.49998474121094
 20
164.75498962402344
 30
0.0
 10
149.489990234375
 20
164.93498229980469
 30
0.0
 10
149.46499633789063
 20
165.10748291015625
 30
0.0
 10
149.41998291015625
 20
165.27499389648437
 30
0.0
 10
149.36248779296875
 20
165.43748474121094
 30
0.0
 10
149.19998168945312
 20
165.7349853515625
 30
0.0
 10
148.98748779296875
 20
165.99249267578125
 30
0.0
 10
148.72749328613281
 20
166.20748901367187
 30
0.0
 10
148.42999267578125
 20
166.36749267578125
 30
0.0
 10
148.26998901367187
 20
166.427490234375
 30
0.0
 10
148.10249328613281
 20
166.46998596191406
 30
0.0
 10
147.927490234375
 20
166.4949951171875
 30
0.0
 10
147.74998474121094
 20
166.50498962402344
 30
0.0
 10
147.56999206542969
 20
166.4949951171875
 30
0.0
 10
147.39749145507812
 20
166.46998596191406
 30
0.0
 10
147.22999572753906
 20
166.427490234375
 30
0.0
 10
147.06748962402344
 20
166.36749267578125
 30
0.0
 10
146.76998901367187
 20
166.20748901367187
 30
0.0
 10
146.51248168945312
 20
165.99249267578125
 30
0.0
 10
146.2974853515625
 20
165.7349853515625
 30
0.0
 10
146.13748168945312
 20
165.43748474121094
 30
0.0
 10
146.07748413085937
 20
165.27499389648437
 30
0.0
 10
146.03498840332031
 20
165.10748291015625
 30
0.0
 10
146.00999450683594
 20
164.93498229980469
 30
0.0
 10
145.99998474121094
 20
164.75498962402344
 30
0.0
  0
ENDSEC
  0
SECTION
  2
OBJECTS
  0
DICTIONARY
  5
C
100
AcDbDictionary
280
0
281
1
  3
ACAD_GROUP
350
D
  3
ACAD_LAYOUT
350
1A
  3
ACAD_MLINESTYLE
350
17
  3
ACAD_PLOTSETTINGS
350
19
  3
ACAD_PLOTSTYLENAME
350
E
  3
AcDbVariableDictionary
350
58
  0
DICTIONARY
  5
D
100
AcDbDictionary
280
0
281
1
  0
ACDBDICTIONARYWDFLT
  5
E
100
AcDbDictionary
281
1
  3
Normal
350
F
100
AcDbDictionaryWithDefault
340
F
  0
ACDBPLACEHOLDER
  5
F
  0
DICTIONARY
  5
17
100
AcDbDictionary
280
0
281
1
  3
Standard
350
18
  0
MLINESTYLE
  5
18
100
AcDbMlineStyle
  2
STANDARD
 70
0
  3

 62
256
 51
90.0
 52
90.0
 71
2
 49
0.5
 62
256
  6
BYLAYER
 49
-0.5
 62
256
  6
BYLAYER
  0
DICTIONARY
  5
19
100
AcDbDictionary
280
0
281
1
  0
DICTIONARY
  5
1A
100
AcDbDictionary
281
1
  3
Layout1
350
1E
  3
Layout2
350
26
  3
Model
350
22
  0
LAYOUT
  5
1E
100
AcDbPlotSettings
  1

  2
none_device
  4

  6

 40
0.0
 41
0.0
 42
0.0
 43
0.0
 44
0.0
 45
0.0
 46
0.0
 47
0.0
 48
0.0
 49
0.0
140
0.0
141
0.0
142
1.0
143
1.0
 70
688
 72
0
 73
0
 74
5
  7

 75
16
147
1.0
148
0.0
149
0.0
100
AcDbLayout
  1
Layout1
 70
1
 71
1
 10
0.0
 20
0.0
 11
420.0
 21
297.0
 12
0.0
 22
0.0
 32
0.0
 14
100000000000000000000.0
 24
100000000000000000000.0
 34
100000000000000000000.0
 15
-100000000000000000000.0
 25
-100000000000000000000.0
 35
-100000000000000000000.0
146
0.0
 13
0.0
 23
0.0
 33
0.0
 16
1.0
 26
0.0
 36
0.0
 17
0.0
 27
1.0
 37
0.0
 76
0
330
1B
  0
LAYOUT
  5
22
100
AcDbPlotSettings
  1

  2
none_device
  4

  6

 40
0.0
 41
0.0
 42
0.0
 43
0.0
 44
0.0
 45
0.0
 46
0.0
 47
0.0
 48
0.0
 49
0.0
140
0.0
141
0.0
142
1.0
143
1.0
 70
1712
 72
0
 73
0
 74
0
  7

 75
0
147
1.0
148
0.0
149
0.0
100
AcDbLayout
  1
Model
 70
1
 71
0
 10
0.0
 20
0.0
 11
12.0
 21
9.0
 12
0.0
 22
0.0
 32
0.0
 14
0.0
 24
0.0
 34
0.0
 15
0.0
 25
0.0
 35
0.0
146
0.0
 13
0.0
 23
0.0
 33
0.0
 16
1.0
 26
0.0
 36
0.0
 17
0.0
 27
1.0
 37
0.0
 76
0
330
1F
  0
LAYOUT
  5
26
100
AcDbPlotSettings
  1

  2
none_device
  4

  6

 40
0.0
 41
0.0
 42
0.0
 43
0.0
 44
0.0
 45
0.0
 46
0.0
 47
0.0
 48
0.0
 49
0.0
140
0.0
141
0.0
142
1.0
143
1.0
 70
688
 72
0
 73
0
 74
5
  7

 75
16
147
1.0
148
0.0
149
0.0
100
AcDbLayout
  1
Layout2
 70
1
 71
2
 10
0.0
 20
0.0
 11
12.0
 21
9.0
 12
0.0
 22
0.0
 32
0.0
 14
0.0
 24
0.0
 34
0.0
 15
0.0
 25
0.0
 35
0.0
146
0.0
 13
0.0
 23
0.0
 33
0.0
 16
1.0
 26
0.0
 36
0.0
 17
0.0
 27
1.0
 37
0.0
 76
0
330
23
  0
DICTIONARY
  5
58
100
AcDbDictionary
281
1
  3
DIMASSOC
350
5A
  3
HIDETEXT
350
59
  0
DICTIONARYVAR
  5
59
100
DictionaryVariables
280
0
  1
2
  0
DICTIONARYVAR
  5
5A
100
DictionaryVariables
280
0
  1
1
  0
ENDSEC
  0
EOF
